Sound will begin in 5 seconds

Cheese Insurance Breakdown

01234567891011121314151617181920212223
E
B
G
D
A
E
B
0 1 2 3 4 5 6 7 8 9 10 11 12 13 14 15 16 17 18 19 20 21 22 23
Song Science #1: How Pros Use 6 Chords to Write Hit Songs
(/) Slide Up  (\) Slide Down  (h) Hammer On  (p) Pull Off  (b) Bend (r) Release (v) Vibrato

Stave 1:

G|--------------10----------------11-----
D|----------11----------------12---------
A|------11----------------12-------------
E|--10-----------------------------------

Stave 2:

G|----------------------------------------------------------9---------9--
D|----------11-------------12-------------11------------10--------10-----
A|------11-------------12-------------11------------10-------------------
E|--10-------------11-------------10-------------9-----------------------

Stave 3:

G|----------10--------------10--------------11--------------11------
D|------11------11------11------11------12------12------12------12--
A|--11--------------11--------------12--------------12--------------
E|------------------------------------------------------------------

Stave 4:

G|----------10--------------10------------------9---------9--
D|------11------11------11------11------10--10--------10-----
A|--11--------------11--------------10-----------------------
E|-----------------------------------------------------------

Stave 5:

G|------------------------------------------------------------------
D|------10------10------10------10------11------11------11------11--
A|--10------10------10------10------11------11------11------11------
E|------------------------------------------------------------------

Stave 6:

G|----------------------------------------------------------
D|------10------10------10------10-----9-----9-----9-----9--
A|--10------10------10------10------9-----9-----9-----9-----
E|----------------------------------------------------------

Stave 7:

G|------------------------------------------------------------------
D|------11------11------11------11------12------12------12------12--
A|--11------11------11------11------12------12------12------12------
E|------------------------------------------------------------------

http://www.guitartabcreator.com
Guitar Tab Creator is intended to store guitar tab created through the tool. It currently does not support in-line text editing. Any text you place in here will be lost. If you need to comment on your tab, please use the "Tab Notes" section located below.