Sound will begin in 5 seconds

Bonus Creatures

01234567891011121314151617181920212223
E
B
G
D
A
E
B
0 1 2 3 4 5 6 7 8 9 10 11 12 13 14 15 16 17 18 19 20 21 22 23
Song Science #1: How Pros Use 6 Chords to Write Hit Songs
(/) Slide Up  (\) Slide Down  (h) Hammer On  (p) Pull Off  (b) Bend (r) Release (v) Vibrato

Stave 1:

G|-----------8------------10------------9--------------12--
D|-----9--7--------11--9---------10--8---------13--11------
A|--7-----------9-------------8------------11--------------
E|---------------------------------------------------------

Stave 2:

G|-----------------------------------------------------------------
D|-----------------------------------------------------------------
A|-----------------------------------7--7--7--7--7-----------------
E|--2-----4-----5-----2-----4-----5--------------------2--2-----1--

Stave 3:

G|-------------------------------------------------------------------
D|-------------------------------------------------------------------
A|--7--7--7--7--7--9--9--9--9--9--8--8--8--8--8--11--11--11--11--11--
E|-------------------------------------------------------------------

Stave 4:

G|-----------------------------------------------------------
D|-----------------------------------------------------------
A|--7--9--8--11--7--9--8--11--11--11--11--11-----------------
E|-----------------------------------------------2--2-----1--

Stave 5:

G|-----------8--10-----------------------9--12--------------
D|-----9--7---------11--9---------10--8---------13--11------
A|--7----------------------10--8------------------------12--
E|----------------------------------------------------------

Stave 6:

G|-------------------------------------------------
D|-------------------------------------------------
A|-------------------------------------------------
E|--1/13-----11--2--2--2--1/13-----11--2--2--2--1--

http://www.guitartabcreator.com
Guitar Tab Creator is intended to store guitar tab created through the tool. It currently does not support in-line text editing. Any text you place in here will be lost. If you need to comment on your tab, please use the "Tab Notes" section located below.