Sound will begin in 5 seconds

Metal Ideas

Chords
01234567891011121314151617181920212223
E
B
G
D
A
E
B
0 1 2 3 4 5 6 7 8 9 10 11 12 13 14 15 16 17 18 19 20 21 22 23
Top Courses in Music 160x600
(/) Slide Up  (\) Slide Down  (h) Hammer On  (p) Pull Off  (b) Bend (r) Release (v) Vibrato

Stave 1:

E|--------------------------------------
B|--------------------------------------
G|--------------------------------------
D|--------------------------------------
A|-------7--7--5h7--7--7-------7--7--5--
E|--5h8--5--5-------5--5--5h8--5--5-----

Stave 2:

E|---------------------------------------
B|---------------------------------------
G|---------------------------------------
D|--------10--------8--------6-----------
A|--------8---------6--------4--------8--
E|--0--0------0--0-----0--0-----0--0--6--

Stave 3:

E|----------------------------------------
B|----------------------------------------
G|----------------------------------------
D|--------7--9------------------7---------
A|--9--9--5--7--11--7-----9--9--5--9--11--
E|--7--7--------9---5-----7--7-----7--9---

Stave 4:

E|---------------------------------
B|---------------------------------
G|---------------------------------
D|--------------9--9--7--11--9--7--
A|--9--9--7--9--7--7--5--9---7--5--
E|--7--7--5--7---------------------

Stave 5:

E|--------------------
B|--------------------
G|--------------------
D|--------------7--9--
A|--9--9--7--9--5--7--
E|--7--7--5--7--------

Stave 6:

E|--------------------------------
B|--------------------------------
G|--------------------------------
D|--------------------------------
A|--3--2-----2--------3--2-----2--
E|--------3-----2-----------3-----

http://www.guitartabcreator.com
Guitar Tab Creator is intended to store guitar tab created through the tool. It currently does not support in-line text editing. Any text you place in here will be lost. If you need to comment on your tab, please use the "Tab Notes" section located below.