Sound will begin in 5 seconds

Youtube Shredaliffic

01234567891011121314151617181920212223
E
B
G
D
A
E
B
0 1 2 3 4 5 6 7 8 9 10 11 12 13 14 15 16 17 18 19 20 21 22 23
Song Science #1: How Pros Use 6 Chords to Write Hit Songs
(/) Slide Up  (\) Slide Down  (h) Hammer On  (p) Pull Off  (b) Bend (r) Release (v) Vibrato

Stave 1:

E|--------------7------14----------21----------17------------0-----------------3--------------------
B|-----------------12-------------------------------------1-----------------------3-----------------
G|-----------------------------------------22----------1-----------------------------3--------------
D|-----------9-------------11--------------------------------------------2--0-----------3-----------
A|--------7----------------------------20----------18-----------2-----0--------------------3--------
E|--9--9-----------------------15----------------------------------0--------------------------4--3--

Stave 2:

E|-----------------5--6-------------------------------------------------------------------------22------------------16----------19----------------------------------------------------
B|--------------4--------7----------------------------------------------------------14------18------22----------10------16------------------------------------------------------------
G|-----------3--------------8----------------4--6-----------15----------20------12----------------------------------------------------------------------------------------------------
D|--------2--------------------9-------------------------5----------13------------------18--------------22----------------------------------------------------------------------------
A|-----1--------------------------10------6--------7--5---------------------17----------------------------------------------15--------------------------------------------------------
E|--0---------------------------------11------------------------14------------------------------------------21----------------------8--9--7--6--5--4--3--2--1--0--23--22--21--20--19--

http://www.guitartabcreator.com
Guitar Tab Creator is intended to store guitar tab created through the tool. It currently does not support in-line text editing. Any text you place in here will be lost. If you need to comment on your tab, please use the "Tab Notes" section located below.