Sound will begin in 5 seconds

Beneath PT.2 - FACT PATTERN

01234567891011121314151617181920212223
E
B
G
D
A
E
B
0 1 2 3 4 5 6 7 8 9 10 11 12 13 14 15 16 17 18 19 20 21 22 23
Song Science #1: How Pros Use 6 Chords to Write Hit Songs
(/) Slide Up  (\) Slide Down  (h) Hammer On  (p) Pull Off  (b) Bend (r) Release (v) Vibrato

Stave 1:

G|---------------------------------------------------------------------------------------------------
D|--------6-----6--7--7h9p7--------------------------------------------------------------------------
A|-----------7---------------------7/9---------------------------------------------------------------
E|-----9------------------------5-------------9--9/12--11--12\5--5--5-----5--5-----------------------
B|--7--------------------------------------7------------------------------------7--7--7-----7--7--7--

Stave 2:

G|---------------------------------------------------------------------
D|---------------------------------------------------------------------
A|---------------------------------------------------------------------
E|---------------------------------------------------------------------
B|--12b0--0--0--0--0--12b0--0--0--0--0--12b0--0--0--0--0--12b12/17b17--

Stave 3:

G|-----------------------------------------------------------------------------
D|-----------------------------------------------------------------------------
A|-----------------------------------------------------------------------------
E|-----------------------------------------5--5--5--5--5--0--3--3--3--3--3--0--
B|--5--5--5--5--5--5--5--5--5--5--5--5--0--------------------------------------

Stave 4:

G|----------------------------------------------------------------------------
D|----------------------------------------------------------------------------
A|-----------------------------------------5--5--5--5--5--5/7--7--7--7--7--7--
E|----------------------------------------------------------------------------
B|--5--5--5--5--5--5--5--5--5--5--5--5--0-------------------------------------

Stave 5:

G|-----------------------------------------------------------------------------
D|-----------------------------------------------------------------------------
A|-----------------------------------------------------------------------------
E|-----------------------------------------5--5--5--5--5--0--3--3--3--3--3--0--
B|--5--5--5--5--5--5--5--5--5--5--5--5--0--------------------------------------

Stave 6:

G|-----------------------------------------------------------------------------
D|-----------------------------------------------------------------------------
A|-----------------------------------------5--5--5--5--5--0--3--3--3--3--3--0--
E|-----------------------------------------------------------------------------
B|--5--5--5--5--5--5--5--5--5--5--5--5--0--------------------------------------

Stave 7:

G|-----------------------------------------------------------------------------
D|-----------------------------------------------------------------------------
A|-----------------------------------------------------------------------------
E|-----------------------------------------5--5--5--5--5--0--3--3--3--3--3--0--
B|--5--5--5--5--5--5--5--5--5--5--5--5--0--------------------------------------

Stave 8:

G|----------------------------------------------------------------------------
D|----------------------------------------------------------------------------
A|-----------------------------------------5--5--5--5--5--5/7--7--7--7--7--7--
E|----------------------------------------------------------------------------
B|--5--5--5--5--5--5--5--5--5--5--5--5--0-------------------------------------

http://www.guitartabcreator.com
Guitar Tab Creator is intended to store guitar tab created through the tool. It currently does not support in-line text editing. Any text you place in here will be lost. If you need to comment on your tab, please use the "Tab Notes" section located below.