Sound will begin in 5 seconds

Beneath PT.1 - FACT PATTERN

01234567891011121314151617181920212223
E
B
G
D
A
E
B
0 1 2 3 4 5 6 7 8 9 10 11 12 13 14 15 16 17 18 19 20 21 22 23
Song Science #1: How Pros Use 6 Chords to Write Hit Songs
(/) Slide Up  (\) Slide Down  (h) Hammer On  (p) Pull Off  (b) Bend (r) Release (v) Vibrato

Stave 1:

G|-----------------------------------------------------------------------------------------
D|-----------------------------------------------------------------------------------------
A|-----------------------------------------------------------------------------------------
E|--------------5--4-----4-----4--4--4--4--4--------------5--7-----------------------------
B|--0--5--7--0--------------------------------0--5--7--0--------5--5-----5--5--5--5--5--5--

Stave 2:

G|------------------------------------------------------------------------------------------
D|------------------------------------------------------------------------------------------
A|------------------------------------------------------------------------------------------
E|--7--7-----0--0--7--0--0--5-----5--5--5/10--10--9-----7--9--7-----7-----0--0--7--0--0--5--
B|------------------------------------------------------------------------------------------

Stave 3:

G|------------------------------------------------------------------------------------------
D|---------------------5--------------------------------------------------------------------
A|----------------5h7-----7--5p0------------------------------------------------------------
E|--5--5--0--5h7------------------0--7--7--7-----0--0--7--0--0--5-----5--5--5/10--10--9-----
B|------------------------------------------------------------------------------------------

Stave 4:

G|----------------------------------------------------------------------
D|----------------------------------------------------------------------
A|-------------------------------------------------------5--------------
E|--7--9--7-----7-----0--0--7--0--0--5-----5--5--0--5h7-----7--5h7p5p0--
B|----------------------------------------------------------------------

Stave 5:

G|--
D|--
A|--
E|--
B|--

http://www.guitartabcreator.com
Guitar Tab Creator is intended to store guitar tab created through the tool. It currently does not support in-line text editing. Any text you place in here will be lost. If you need to comment on your tab, please use the "Tab Notes" section located below.