Sound will begin in 5 seconds

White Denim - Back At The Farm

Chords
01234567891011121314151617181920212223
E
B
G
D
A
E
B
0 1 2 3 4 5 6 7 8 9 10 11 12 13 14 15 16 17 18 19 20 21 22 23
Top Courses in Music 160x600
(/) Slide Up  (\) Slide Down  (h) Hammer On  (p) Pull Off  (b) Bend (r) Release (v) Vibrato

Stave 1:

E|-----------------------
B|-----------------------
G|--5--4--2--------------
D|-----------5--4--2--0--
A|-----------------------
E|-----------------------

Stave 2:

E|--------------------------------------------------------------------
B|--------------------------------------------------------------------
G|-----------5--5--4--5--4-----------------------5--5--4--5--4--------
D|--4--5--7-----------------7--5--7--4--4--5--7-----------------5--4--
A|--------------------------------------------------------------------
E|--------------------------------------------------------------------

Stave 3:

E|----------------------------------------------------------------------------------------------------------------------
B|----------------------------------------------------------------------------------------------------------------------
G|-----------4--5--7-----------5--7--9-----------4--5--7-----------5--7--9--11--11--11--12--11--11--11--12--14--12--11--
D|--4--5--7-----------5--7--9-----------4--5--7-----------5--7--9-------------------------------------------------------
A|----------------------------------------------------------------------------------------------------------------------
E|----------------------------------------------------------------------------------------------------------------------

Stave 4:

E|--------------------------------------------------
B|--------------------------------------------------
G|--------------------------------------------------
D|-----2--0-----------------2--0--------------5--0--
A|--5--------3--0--3--0--5--------------3--0--------
E|--------------------------------------------------

Stave 5:

E|--------------------------------------------------------
B|--------------------------------------------------------
G|--9--7--5-----------7--5--4-----------5--4--2-----------
D|-----------9--7--5-----------7--5--4-----------5--4--2--
A|--------------------------------------------------------
E|--------------------------------------------------------

Stave 6:

E|--3--------------------------------------------------3--
B|--4--------------------------1-----------------------3--
G|--3-----5--4--2-----------------5--4--2-----------------
D|-----------------5--4--2--0--2-----------5--4--2--0-----
A|-----------------------------3--------------------------
E|-----------------------------------------------------3--

http://www.guitartabcreator.com
Guitar Tab Creator is intended to store guitar tab created through the tool. It currently does not support in-line text editing. Any text you place in here will be lost. If you need to comment on your tab, please use the "Tab Notes" section located below.