Sound will begin in 5 seconds

Star Spangled Banner

01234567891011121314151617181920212223
E
B
G
D
A
E
B
0 1 2 3 4 5 6 7 8 9 10 11 12 13 14 15 16 17 18 19 20 21 22 23
Top Courses in Music 160x600
(/) Slide Up  (\) Slide Down  (h) Hammer On  (p) Pull Off  (b) Bend (r) Release (v) Vibrato

Stave 1:

E|-----------------------------------------------------------------------------
B|--------------------3--------------------------------------------------------
G|-----------------3-----5--3-----------------7--5--3--2-----2--3--3-----------
D|--3-----------3-----------------2--3--3--3--------------5-----------3--------
A|-----5-----5-----------------5-----------------------------------------5-----
E|--------6-----------------------------------------------------------------6--

Stave 2:

E|-----------------------------------------------------------------------------
B|--------------------3--------------------------------------------------------
G|-----------------3-----5--3-----------------7--5--3--2-----2--3--3-----------
D|--3-----------3-----------------2--3--3--3--------------5-----------3--------
A|-----5-----5-----------------5-----------------------------------------5-----
E|--------6-----------------------------------------------------------------6--

Stave 3:

E|----------------------------------------------------------------------------------------------
B|--15--15--15--16--18--16--15--13--15--16--16--16--16--15--13--11--10--------------------------
G|--------------------------------------------------------------------------10--11--------------
D|----------------------------------------------------------------------13--------------10--11--
A|----------------------------------------------------------------------------------13----------
E|----------------------------------------------------------------------------------------------

Stave 4:

E|------------------------------------------------------------------
B|------------------------------------------------------------------
G|------11--11--11--11--10--------------13--16--15--13--11--11--10--
D|--11----------------------13--13--13------------------------------
A|------------------------------------------------------------------
E|------------------------------------------------------------------

Stave 5:

E|---------------------------------------
B|---------------------------------------
G|-----3--5--7--8--10--3--5--7--8--5--3--
D|--3------------------------------------
A|---------------------------------------
E|---------------------------------------

http://www.guitartabcreator.com
Guitar Tab Creator is intended to store guitar tab created through the tool. It currently does not support in-line text editing. Any text you place in here will be lost. If you need to comment on your tab, please use the "Tab Notes" section located below.