Sound will begin in 5 seconds

Gusty Garden Galaxy

Chords
01234567891011121314151617181920212223
E
B
G
D
A
E
B
0 1 2 3 4 5 6 7 8 9 10 11 12 13 14 15 16 17 18 19 20 21 22 23
Song Science #1: How Pros Use 6 Chords to Write Hit Songs
(/) Slide Up  (\) Slide Down  (h) Hammer On  (p) Pull Off  (b) Bend (r) Release (v) Vibrato

Stave 1:

E|-----------------------------------13--12--10--8-----8---------9---------11--------9---------
B|--------------8------------10--11--------------------8---------9---------11--------9---------
G|-----5--7--5-----------12----------------------------9---------10--------12--------10--------
D|-----------------------------------------------------10--------11--------13--------11--------
A|-----------------------------------------------------8---------9---------11--------9---------
E|-----------------------------------------------------8---------9---------11--------9---------

Stave 2:

E|--4--------------6-----------------------------8------------------------------------
B|--4--------------6-----------------------------8------------------------------------
G|--5--------------7-----------------------------9------------------------------------
D|--6--------------8-----------------------------10-----------------------------------
A|--6--------------8-----------------------------10-----------------------------------
E|--4--------------6-----------------------------8------------------------------------

Stave 3:

E|-------------------------------------------------------------------------
B|--------------------------------------------------10--9--7--9--7h9p7--5--
G|--5--4--7--5--------------------------7--6--9--7-------------------------
D|--------------5-----2--3--5--5--3----------------------------------------
A|-------------------------------------------------------------------------
E|-------------------------------------------------------------------------

Stave 4:

E|--0-----------0--------------1-----0--1--------3--------------0--------------------
B|--1-----------1--------------1-----1--3--------0--------------1-----------3--------
G|--0-----------0--------------2-----2--2--------0--------------0-----------4--------
D|--2-----------2--------------3-----2--0--------0--------------2-----------5--------
A|--3-----------0--------------------0-----------2--------------3-----------2--------
E|-----------------------------------------------3-----------------------------------

http://www.guitartabcreator.com
Guitar Tab Creator is intended to store guitar tab created through the tool. It currently does not support in-line text editing. Any text you place in here will be lost. If you need to comment on your tab, please use the "Tab Notes" section located below.