Sound will begin in 5 seconds

Repolish 2.0 (Working Title)

Chords
01234567891011121314151617181920212223
E
B
G
D
A
E
B
0 1 2 3 4 5 6 7 8 9 10 11 12 13 14 15 16 17 18 19 20 21 22 23
Top Courses in Music 160x600
(/) Slide Up  (\) Slide Down  (h) Hammer On  (p) Pull Off  (b) Bend (r) Release (v) Vibrato

Stave 1:

Db|--------------------------------------------------
Ab|--------------------------------------------------
E |--------------------------------------------------
B |--------------------------------------------------
Gb|--------------------------------------------------
B |--1--4--3--1--6--4--3--4--7--6--4--6--4--3--4--3--

Stave 2:

Db|-----------------------------------------
Ab|-----------------------------------------
E |--------------------------4--3--3--3--4--
B |--------------------------3--3--3--3--3--
Gb|--------------------------3--3--3--3--3--
B |--1--4--3--1--6--4--3--4-----------------

Stave 3:

Db|--------------------------------------------------
Ab|--------------------------------------------------
E |--------------------------------------------------
B |--------------------------------------------------
Gb|--------------------------------------------------
B |--1--4--3--1--6--4--3--4--7--6--4--6--4--3--4--3--

Stave 4:

Db|--------------------------------------------------
Ab|--------------------------------------------------
E |--------------------------------------------------
B |--------------------------------------------------
Gb|--------------------------------------------------
B |--1--4--3--1--7--6--4--6--4--5--4--3--4--3--2--3--

Stave 5:

Db|--------------------------------------------------
Ab|--------------------------------------------------
E |--------------------------------------------------
B |--------------------------------------------------
Gb|--------------------------------------------------
B |--4--4--4--4--3--3--3--3--3--4--3--1--3--1--4--1--

Stave 6:

Db|------------------------------------------------------
Ab|------------------------------------------------------
E |--------------------------------------12--15--14--17--
B |--5--5--5--5--------------------------10--12--12--15--
Gb|--5--5--5--5--------------------------10--12--12--15--
B |--5--5--5--5--12--12--12--13--13--15------------------

Stave 7:

Db|------------------------------------
Ab|------------------------------------
E |------------------------------------
B |------------------------------------
Gb|-----------0h1p0-----0--------------
B |--0--0--0---------3-----3--0--1--0--

http://www.guitartabcreator.com
Guitar Tab Creator is intended to store guitar tab created through the tool. It currently does not support in-line text editing. Any text you place in here will be lost. If you need to comment on your tab, please use the "Tab Notes" section located below.