Sound will begin in 5 seconds

New Rev (Working title)

Chords
01234567891011121314151617181920212223
E
B
G
D
A
E
B
0 1 2 3 4 5 6 7 8 9 10 11 12 13 14 15 16 17 18 19 20 21 22 23
Top Courses in Music 160x600
(/) Slide Up  (\) Slide Down  (h) Hammer On  (p) Pull Off  (b) Bend (r) Release (v) Vibrato

Stave 1:

Db|-----------------------------------------------------------------------------
Ab|-----------------------------------------------------------------------------
E |--5--4--------------6--5-----------------------------------------------------
B |--3--2--------------3--3-----------------------------------------------------
Gb|--3--2--------------3--3-----------------------------------------------------
B |--3--2--0--0--0--0--3--3--0--3--3--3--3--3--3--3--3--3--3--3--3--3--3--3--3--

Stave 2:

Db|-----------------------------------------------------------------------------------
Ab|-----------------------------------------------------------------------------------
E |-----------------------------------------------------------------------------------
B |-----------------------------------------------6-----------------------------4--4--
Gb|--------------------------------3--2-----2--3--------------------------------3--3--
B |--0--0--1--0--1--0--6--3--2--3--------3-----------3--3--6--6--3--6--6--3--6--------

Stave 3:

Db|------------------------------------------------------------------
Ab|------------------------------------------------------------------
E |------------------------------------------------------------------
B |--7--7--5--5--3--2--1--0--0-----------------0---------------------
Gb|--7--7--5--5--3--2--1--0--0-----------------0---------------------
B |--7--7--5--5--3--2--1--0--0--2--3--5--6--5--0--15--14--10--9--10--

Stave 4:

Db|--------------------------
Ab|--------------------------
E |--------------------------
B |--------------------------
Gb|--------------------------
B |--0--0--0--0--0--0--6--3--

Stave 5:

Db|--------------------------
Ab|-----------------------5--
E |-----------------------3--
B |--------------------------
Gb|--------------------------
B |--0--0--0--0--0--0--------

Stave 6:

Db|--------------------------------------------------------------------------------------
Ab|--------------------------------------------------------------------------------------
E |--------------------------------------------------------------------------------------
B |-----------------3--5--6--------------------------------------------------------------
Gb|--6--5--3--5--6--------------------------------------6--5-----6--5-----3-----3--------
B |-----------------------------------------------------------0--------6-----5-----1--0--

Stave 7:

Db|------------------------------------------------------------------------------------------------
Ab|------------------------------------------------------------------------------------------------
E |------------------------------------------------------------------------------------------------
B |------------------------------------------------------------------------------------------------
Gb|--------------------5--8--6--5--------------------5--10--6--5--------------3--2--------------4--
B |--0--2--3--2--5--3--------------2--3--5--3--8--7---------------0--0--0--0--3--2--0--0--0--0--4--

http://www.guitartabcreator.com
Guitar Tab Creator is intended to store guitar tab created through the tool. It currently does not support in-line text editing. Any text you place in here will be lost. If you need to comment on your tab, please use the "Tab Notes" section located below.