Sound will begin in 5 seconds

Continua

Chords
01234567891011121314151617181920212223
E
B
G
D
A
E
B
0 1 2 3 4 5 6 7 8 9 10 11 12 13 14 15 16 17 18 19 20 21 22 23
Top Courses in Music 160x600
(/) Slide Up  (\) Slide Down  (h) Hammer On  (p) Pull Off  (b) Bend (r) Release (v) Vibrato

Stave 1:

E|-------------------
B|--12--6--8--4--10--
G|--11--5--7--3--9---
D|--9---3--5--1--7---
A|--9---3--5--1--7---
E|--9---3--5--1--7---

Stave 2:

E|-----------------------------------------------------------------------------
B|-----------------------------------------------------------------------------
G|-----------------------------------------------------------------------------
D|-----------------------------------------------------------------------------
A|-----------------2--3--2--------------------------------2--3--2--------------
E|--0--0--0--0--1-----------3--0--1--3--4--0--0--0--0--1-----------0--3--4--6--

Stave 3:

E|-----------------------------------------------------------------
B|-----------------------------------------------------------------
G|-----------------------------------------------------------------
D|-----------------------------------------------------------------
A|--5--4--4-----5--4--4--------------------------------------------
E|--4--3--3--0--4--3--3--0--1--0--0--1--0--6--4--3--0--4--3--1--0--

Stave 4:

E|--------------------------------------------------------
B|--------------------------------------------------------
G|--------------------------------------------------------
D|--------------------------------------------------------
A|-----------2--3--2-----2--------------------------------
E|--0--2--3-----------3-----6--4--3--0--4--3--1--0--0--0--

Stave 5:

E|--------------------------------------------------------------------------------------------------
B|--------------------------------------------------------------------------------------------------
G|--------------------------------------------------------------------------------------------------
D|-----------------7--8--7-----------------1--3--1-----------------7--8--7--------------------------
A|-----------------5--5--5-----------------1--1--1-----------------5--5--5--------------------------
E|--0--0--0--0--0-----------0--0--0--0--0-----------0--0--0--0--0-----------0--1--3--1--0--0--1--0--

http://www.guitartabcreator.com
Guitar Tab Creator is intended to store guitar tab created through the tool. It currently does not support in-line text editing. Any text you place in here will be lost. If you need to comment on your tab, please use the "Tab Notes" section located below.