Sound will begin in 5 seconds

Morning Coffee - Jesper Munk

Chords
01234567891011121314151617181920212223
E
B
G
D
A
E
B
0 1 2 3 4 5 6 7 8 9 10 11 12 13 14 15 16 17 18 19 20 21 22 23
Song Science #1: How Pros Use 6 Chords to Write Hit Songs
(/) Slide Up  (\) Slide Down  (h) Hammer On  (p) Pull Off  (b) Bend (r) Release (v) Vibrato

Stave 1:

E|--x--x--x--x--------------6--5--5--3--3-----6--5--5--3--3--5--5--------
B|--1--5--3--1--------------8--5--6--4--3-----8--5--6--4--3--5--8--------
G|--2--5--3--3--------------7--6--5--3--4-----7--6--5--3--5--6--6--------
D|--2--5--5--2--------------8--5--7--5--3-----8--5--7--5--3--5--5--------
A|--x--x--x--3--------------6--7--5--3--5-----6--7--5--3--4--7--7--------
E|--1--5--3--x--------------6--5--x--x--3-----6--5--x--x--3--5--5--------

Stave 2:

E|--x--x--x--x--------------8---7--7--5--5-----8---7--7--5--5--7--7---------
B|--3--7--5--3--------------10--7--8--6--5-----10--7--8--6--5--7--10--------
G|--4--7--5--5--------------9---8--7--5--6-----9---8--7--5--6--8--8---------
D|--4--7--5--4--------------10--7--9--7--5-----10--7--9--7--5--7--7---------
A|--x--x--x--5--------------8---9--7--5--7-----8---9--7--5--7--9--8---------
E|--3--7--5--x--------------8---7--x--x--5-----8---7--x--x--5--7--7---------

http://www.guitartabcreator.com
Guitar Tab Creator is intended to store guitar tab created through the tool. It currently does not support in-line text editing. Any text you place in here will be lost. If you need to comment on your tab, please use the "Tab Notes" section located below.