Sound will begin in 5 seconds

peru

Chords
01234567891011121314151617181920212223
E
B
G
D
A
E
B
0 1 2 3 4 5 6 7 8 9 10 11 12 13 14 15 16 17 18 19 20 21 22 23
Song Science #1: How Pros Use 6 Chords to Write Hit Songs
(/) Slide Up  (\) Slide Down  (h) Hammer On  (p) Pull Off  (b) Bend (r) Release (v) Vibrato

Stave 1:

C |---------------------------------------------------------------------------------------------------------
A |----------0-----------0-----------0-----------0-----------0-----------0-----------0-----------0----------
Gb|-------------0-----------0-----------0-----------0-----------0-----------0-----------0-----------0-------
D |----------------4-----------4-----------4-----------4-----------2-----------2-----------2----------------
A |---------------------------------------------------------------------------------------------------------
D |--0h4--------------4-----------4-----------4-----------2-----------2-----------2-----------2--------0h4--

Stave 2:

C |-----------5-----------5-----------7-----------7-----------8-----------8-----------5-----------
A |--------------0-----------0-----------0-----------0-----------0-----------0-----------0--------
Gb|-----------------0-----------0-----------0-----------0-----------0-----------0-----------0-----
D |-----------------------------------------------------------------------------------------------
A |-----------------------------------------------------------------------------------------------
D |--------4-----------4-----------2-----------2-----------0-----------0-----------4-----------4--

Stave 3:

C |-----------------------------------------------------------------------------------------------------------------------------------------------------------
A |-----------------------------------------------------------------------------------------------------------------------------------------------------------
Gb|-----------------------------------------------------------------------------------------------------------------------------------------------------------
D |-----------------------------------------------------------------------------------------------------------------------------------------------------------
A |--------------0--4--0--4--5--4--0-----0--4--0--4--5--4--0-----0--2--0--5--0--2--0-----0--2--0--4--0--2--0-----2--4--2--5--2--4--2-----2--4--2--5--2--4--2--
D |-----------4-----------------------4-----------------------0-----------------------0-----------------------2-----------------------2-----------------------

Stave 4:

C |-----------------------
A |-----------------------
Gb|-----------------------
D |-----------------------
A |-----------------------
D |-----4--4-----4--4--4--

Stave 5:

C |-----------------------------
A |-----------------------------
Gb|-----------------------------
D |-----3--3-----0--0-----2--2--
A |-----3--3-----2--2-----2--4--
D |-----3--3-----0--0-----2--2--

http://www.guitartabcreator.com
Guitar Tab Creator is intended to store guitar tab created through the tool. It currently does not support in-line text editing. Any text you place in here will be lost. If you need to comment on your tab, please use the "Tab Notes" section located below.