Sound will begin in 5 seconds

Fusion composition 1 (chords)

Chords
01234567891011121314151617181920212223
E
B
G
D
A
E
B
0 1 2 3 4 5 6 7 8 9 10 11 12 13 14 15 16 17 18 19 20 21 22 23
Top Courses in Music 160x600
(/) Slide Up  (\) Slide Down  (h) Hammer On  (p) Pull Off  (b) Bend (r) Release (v) Vibrato

Stave 1:

E|-----------------------
B|--5--8---5--4------11--
G|--4--7---4--3--9---9---
D|--7--10--7--6--10--8---
A|--7--10--7--6--11--7---
E|---------------12------

Stave 2:

E|---------------
B|--3---------5--
G|--2--5--12--4--
D|--4--9--9---2--
A|--3--7--10--3--
E|---------------

Stave 3:

E|--12--15--
B|--10--13--
G|--9---12--
D|----------
A|----------
E|----------

http://www.guitartabcreator.com
Guitar Tab Creator is intended to store guitar tab created through the tool. It currently does not support in-line text editing. Any text you place in here will be lost. If you need to comment on your tab, please use the "Tab Notes" section located below.