Sound will begin in 5 seconds

random stuff :/ meh

01234567891011121314151617181920212223
E
B
G
D
A
E
B
0 1 2 3 4 5 6 7 8 9 10 11 12 13 14 15 16 17 18 19 20 21 22 23
Song Science #1: How Pros Use 6 Chords to Write Hit Songs
(/) Slide Up  (\) Slide Down  (h) Hammer On  (p) Pull Off  (b) Bend (r) Release (v) Vibrato

Stave 1:

B |--12--19-----12--13--12--13--17--10-----12-----13--12--13-----15--19--12-----
Gb|-----------------------------------------------------------------------------
D |-----------------------------------------------------------------------------
A |-----------------------------------------------------------------------------
E |-----------------------------------------------------------------------------
A |-----------------------------------------------------------------------------

Stave 2:

B |--12--19-----12--13--12--13--17--10-----12--15--19-----19--17--15--17--12--
Gb|---------------------------------------------------------------------------
D |---------------------------------------------------------------------------
A |---------------------------------------------------------------------------
E |---------------------------------------------------------------------------
A |---------------------------------------------------------------------------

Stave 3:

B |--------------------------------------------------------------------------------------------------
Gb|--------------------------------------------------------------------------------------------------
D |--6--7--9--6--9--6--7--9--6--7--6--6--9--6--7--9--6--9--7--6--7--6--7--9--6--7--9--7--6--6--7--9--
A |--------------------------------------------------------------------------------------------------
E |--------------------------------------------------------------------------------------------------
A |--------------------------------------------------------------------------------------------------

Stave 4:

B |---------------------------------------------------------------------------
Gb|--12--19-----12--13--12--13--19--10-----12--19-----12--15-----7--9--10--5--
D |---------------------------------------------------------------------------
A |---------------------------------------------------------------------------
E |---------------------------------------------------------------------------
A |---------------------------------------------------------------------------

http://www.guitartabcreator.com
Guitar Tab Creator is intended to store guitar tab created through the tool. It currently does not support in-line text editing. Any text you place in here will be lost. If you need to comment on your tab, please use the "Tab Notes" section located below.