Sound will begin in 5 seconds

The Wave

Chords
01234567891011121314151617181920212223
E
B
G
D
A
E
B
0 1 2 3 4 5 6 7 8 9 10 11 12 13 14 15 16 17 18 19 20 21 22 23
Song Science #1: How Pros Use 6 Chords to Write Hit Songs
(/) Slide Up  (\) Slide Down  (h) Hammer On  (p) Pull Off  (b) Bend (r) Release (v) Vibrato

Stave 1:

E|------------------------------------
B|------------------------------------
G|------------------------------------
D|-----11h12--11h12-----11h12--11h12--
A|-----0----------------9-------------
D|--0----------------9----------------

Stave 2:

E|------------------------------------------------------------------
B|------------------------------------------------------------------
G|--9---9---9---9---9---9---9---9---9---9---9---9---9---9---9---9---
D|--11--11--11--11--11--11--11--11--11--11--11--11--11--11--11--11--
A|--0---0---0---0---0---0---0---0---0---0---0---0---0---0---0---0---
D|--0---0---0---0---0---0---0---0---0---0---0---0---0---0---0---0---

Stave 3:

E|------------------------------------------------------------------
B|------------------------------------------------------------------
G|--11--11--11--11--11--11--11--11--11--11--11--11--11--11--11--11--
D|--11--11--11--11--11--11--11--11--11--11--11--11--11--11--11--11--
A|--9---9---9---9---9---9---9---9---9---9---9---9---9---9---9---9---
D|--9---9---9---9---9---9---9---9---9---9---9---9---9---9---9---9---

Stave 4:

E|---------------------------------------
B|---------------------------------------
G|------------------------------------9--
D|-----11h12--11h12p11-----9--11--12-----
A|-----0----------------0--9-------------
D|--0----------------------9-------------

Stave 5:

E|---------------------------------------------------------9--------------------------
B|--------7-----10--------------------2--------------7-----------------------2--------
G|-----7---------------------2--4--------4--------7--------------------2--4-----4--7--
D|--0--------0------0--------------------------0--------0-----0-----------------------
A|---------------------0--2--------2--------0--------------------0--2-----------------
D|------------------------------------------------------------------------------------

Stave 6:

E|---------------------------------------------------------10--
B|--------7-----10--------------------2--------------7---------
G|-----7---------------------2--4--------4--------7------------
D|--0--------0------0--------------------------0--------0------
A|---------------------0--2--------2--------0------------------
D|-------------------------------------------------------------

Stave 7:

E|-----------------------------------------------------------------------------------------------------
B|--------------------2-----------------------2-----------------------2-----------------------2--------
G|-----------2-----------4-----------2-----------4-----------2-----------4-----------2-----------4-----
D|--------------4-----------------------4-----------------------4-----------------------4--------------
A|--0--2--2--------2--------2--2--2--------2--------2--2--2--------2--------2--2--2--------2-----------
D|--------------------------------------------------------------------------------------------------0--

Stave 8:

E|--------------------------------------------------------------------------
B|--------------------------------------------------------------------------
G|-----------7-----------------7-----------------6-----------------7--------
D|--------------7-----------------7-----------7-----7-----------------7-----
A|-----5-----------------5-----------------5-----------5-----5--------------
D|--5-----5--------5--5-----5--------5--5-----------------5-----5--------5--

Stave 9:

E|--------------------------------------------------------------
B|--------------------------------------------------------------
G|-----------6-----------------6-----------6-----------------6--
D|--------7-----7-----------7-----------7-----7-----------7-----
A|-----0-----------0-----0-----------4-----------4-----4--------
D|--0-----------------0-----------4-----------------4-----------

Stave 10:

E|------------------------------------
B|------------------------------------
G|------------------------------------
D|-----11h12--11h12-----11h12--11h12--
A|-----0----------------9-------------
D|--0----------------9----------------

Stave 11:

E|---------------------------------------------------------------------------
B|---------------------------------------------------------------------------
G|-----7p6--7p6-----7p6-------7p6-----7p6-------7p6-----7p6-------7p6--6--6--
D|--0------------4-------7p4-------0-------7p0-------4-------7p4-------------
A|--0------------4-----------------0-----------------4-----------------------
D|--0------------4-----------------0-----------------4-----------------------

Stave 12:

E|------------------------------------------------------------------------------------------
B|------------------------------------------------------------------------------------------
G|-------------7p6--6--6-------------7p6--6--6-------------7p6--6--6-------------7p6--6--6--
D|--7p4--4--4-------------7p4--4--4-------------7p4--4--4-------------7p4--4--4-------------
A|------------------------------------------------------------------------------------------
D|------------------------------------------------------------------------------------------

Stave 13:

E|--------------------------
B|--------------------------
G|--------------7--6--6--6--
D|--7--4--4--4--------------
A|--7--4--4--4--5--4--4--4--
D|--7--4--4--4--------------

Stave 14:

E|--------------------------------------------------------------
B|--------------------------------------------------------------
G|--11-----11--11--11-----11--11--11-----11--11--11-----11--11--
D|--12-----12--12--12-----12--12--12-----12--12--12-----12--12--
A|--0------0---0---0------0---0---0------0---0---0------0---0---
D|--0------0---0---0------0---0---0------0---0---0------0---0---

Stave 15:

E|--------------------------------------------------------------
B|--------------------------------------------------------------
G|--11-----11--11--11-----11--11--11-----11--11--11-----11--11--
D|--11-----11--11--11-----11--11--11-----11--11--11-----11--11--
A|--9------9---9---9------9---9---9------9---9---9------9---9---
D|--9------9---9---9------9---9---9------9---9---9------9---9---

Stave 16:

E|-----------------------------------------------------------
B|-----------------------------------------------------------
G|--11-----11--11--11-----11--11--7-----7--7--9------9---9---
D|--12-----12--12--12-----12--12--9-----9--9--11-----11--11--
A|--0------0---0---0------0---0---0-----0--0--0------0---0---
D|--0------0---0---0------0---0---0-----0--0--0------0---0---

Stave 17:

E|----------------------------------------------------------0--
B|----------------------------------------------------------0--
G|--11-----11--11--11-----11--11--11--11--11--11--11--------0--
D|--11-----11--11--11-----11--11--11--11--11--11--11--8--7--0--
A|--9------9---9---9------9---9---9---9---9---9---9---8--7--0--
D|--9------9---9---9------9---9---9---9---9---9---9---8--7--0--

Stave 18:

E|--------------------------------------------------------------------------------------------------
B|--------------------------------------------------------------------------------------------------
G|--------------------------7--7--7--7--7--7--7--7--6--6--6--6--6--6--6--6--7--7--7--7--7--7--7--7--
D|--5--5--5--5--5--5--5--5--7--7--7--7--7--7--7--7--7--7--7--7--7--7--7--7--7--7--7--7--7--7--7--7--
A|--5--5--5--5--5--5--5--5--5--5--5--5--5--5--5--5--5--5--5--5--5--5--5--5--5--5--5--5--5--5--5--5--
D|--5--5--5--5--5--5--5--5--5--5--5--5--5--5--5--5--5--5--5--5--5--5--5--5--5--5--5--5--5--5--5--5--

Stave 19:

E|-------------------------------------------------
B|-------------------------------------------------
G|--------------7--------------7--------6h7--7-----
D|--------------7--------------7--------7----7--0--
A|--0--0--0--0--5-----0--0--0--5--0--0--5----5--0--
D|--0--0--0--0--------0--0--0-----0--0----------0--

Stave 20:

E|-------------------------------
B|-------------------------------
G|--------------------7--9---11--
D|--3-----2-----------9--11--11--
A|--3-----0------------------9---
D|--3--------0---------------9---

http://www.guitartabcreator.com
Guitar Tab Creator is intended to store guitar tab created through the tool. It currently does not support in-line text editing. Any text you place in here will be lost. If you need to comment on your tab, please use the "Tab Notes" section located below.