Sound will begin in 5 seconds

Lights

Chords
01234567891011121314151617181920212223
E
B
G
D
A
E
B
0 1 2 3 4 5 6 7 8 9 10 11 12 13 14 15 16 17 18 19 20 21 22 23
Song Science #1: How Pros Use 6 Chords to Write Hit Songs
(/) Slide Up  (\) Slide Down  (h) Hammer On  (p) Pull Off  (b) Bend (r) Release (v) Vibrato

Stave 1:

E|--------------------------------------
B|--------------------------------------
G|--------------------------------------
D|--------------------------------------
A|--------------------------------------
D|--0-----0--0--1p0--0--2p0--0--3p0--0--

Stave 2:

E|---------------------------------
B|---------------------------------
G|---------------------------------
D|---------------------------------
A|---------------------------------
D|--0-----0--0--1p0--0--2p0--0--3--

Stave 3:

E|-----------1--1-----1-----1-----1--1--
B|--------------------------------------
G|--7-----7--------7-----7-----7--------
D|--------------------------------------
A|--5-----5--------5-----5-----5--------
D|--------------------------------------

Stave 4:

E|-----------1--1-----1-----1-----1--1--
B|--------------------------------------
G|--7-----7--------7-----7-----7--------
D|--7-----7--------7-----7-----7--------
A|--5-----5--------5-----5-----5--------
D|--------------------------------------

Stave 5:

E|----------------------------------------------
B|----------------------------------------------
G|--7-----7--7-----7--7-----7--7-----7--7-----7/
D|--7-----7--7-----7--7-----7--7-----7--7-----7-
A|--5-----5--5-----5--5-----5--5-----5--5-----5-
D|----------------------------------------------

Stave 6:

E|--------------
B|--------------
G|--19--17--15--
D|--19--17--15--
A|--17--15--13--
D|--------------

Stave 7:

E|--------------------------------------
B|--------------------------------------
G|--------------------------------------
D|--------------------------------------
A|--------------------------------------
D|--0-----0-----0-----0-----0--0--0--0--

Stave 8:

E|--------------------------------------------
B|--------------------------------------------
G|--------------------------------------------
D|--------------------------------------------
A|--------------------------------------------
D|--0-----0-----0-----0-----0--0--0--0--0--0--

Stave 9:

E|------------------------------------------|------------------------------------------
B|------------------------------------------|------------------------------------------
G|------------------------------------------|------------------------------------------
D|------------------------------------------|------------------------------------------
A|------------------------------------------|------------------------------------------
D|--0-----0--0--12p0--0--13p0--0--14p0--15--|--0-----0--0--12p0--0--13p0--0--14p0--15--

Stave 10:

E|-----------------------------------------|-----------------------------------
B|-----------------------------------------|-----------------------------------
G|-----------------------------------------|-----------------------------------
D|-----------------------------------------|-----------------------------------
A|-----------------------------------------|-----------------------------------
D|--0-----0--0--13p0--0--14p0--0--15p0--0--|--0-----0--0--13p0--0--14p0--0--0--

Stave 11:

E|-----------1--1-----1-----1-----1--1--|-----------1--1-----1-----1-----1--1--
B|--------------------------------------|--------------------------------------
G|--7-----7--------7-----7-----7--------|--7-----7--------7-----7-----7--------
D|--7-----7--------7-----7-----7--------|--7-----7--------7-----7-----7--------
A|--5-----5--------5-----5-----5--------|--5-----5--------5-----5-----5--------
D|--------------------------------------|--------------------------------------

Stave 12:

E|-----------1--1-----1-----1-----1--1--|-----------1--1-----1-----1-----1--1--
B|--------------------------------------|--------------------------------------
G|--------------------------------------|--------------------------------------
D|--3-----3--------3-----3-----3--------|--7-----7--------7-----7-----7--------
A|--3-----3--------3-----3-----3--------|--7-----7--------7-----7-----7--------
D|--3-----3--------3-----3-----3--------|--7-----7--------7-----7-----7--------

Stave 13:

E|---------------------------------------------------
B|---------------------------------------------------
G|---------------------------------------------------
D|--7-----7--7-----7--7-----7--7-----7--7-----7--7---
A|--7-----7--7-----7--7-----7--7-----7--7-----7--7---
D|--7-----7--7-----7--7-----7--8-----8--9-----9--10--

Stave 14:

E|------------------------------
B|------------------------------
G|------------------------------
D|--0-----0--0--1-0--0--2-0--3--
A|--0-----0--0--1-0--0--2-0--3--
D|--0-----0--0--1p0--0--2p0--3--

Stave 15:

E|-------------------------0--
B|-------------------------0--
G|-------------------------0--
D|--0-----0--0--1-0--0-----0--
A|--0-----0--0--1-0--0--------
D|--0-----0--0--1p0--0--------

Stave 16:

E|--------------------------------------
B|--------------------------------------
G|--------------------------------------
D|--------------------------------------
A|--------------------------------------
D|--0-----0--0--1p0--0--2p0--0--3p0--0--

Stave 17:

E|--------------------------------------|--------------------------------------
B|--------------------------------------|--------------------------------------
G|--------------------------------------|--------------------------------------
D|--------------------------------------|--------------------------------------
A|-----------------------------------5--|-----------------------------------3--
D|--0-----0--0--1p0--0--2p0--0--3p0-----|--0-----0--0--1p0--0--2p0--0--3p0-----

Stave 18:

E|--------------------------------------|-----------------------------------------
B|--------------------------------------|-----------------------------------------
G|--------------------------------------|-----------------------------------------
D|--------------------------------------|-----------------------------------------
A|-----------------------------------1--|-----------------------------------------
D|--0-----0--0--1p0--0--2p0--0--3p0-----|--0-----0--0--1p0--0--2p0--0--3p0--2--1--

Stave 19:

E|----------------------------------
B|----------------------------------
G|----------------------------------
D|----------------------------------
A|----------------------------------
D|--0-----0--0--1p0--0--2p0--0--3/7b

Stave 20:

E|-----------------------------------
B|-----------------------------------
G|-----------------------------------
D|--0-----0--0--2--2--2--2--2--0--3--
A|--0-----0--0--3--3--3--3--3--0--3--
D|--0-----0--0-----------------0--3--

Stave 21:

E|-----------------------
B|-----------------------
G|-----------------------
D|--2--2--2--2--2--0--3--
A|--3--3--3--3--3--0--3--
D|-----------------0--3--

Stave 22:

E|--1----------------1--1--1----------------------------
B|------------------------------------------------------
G|-----5-----5--5-7-------------------------------------
D|------------------------------------------------------
A|-----3-----3--3/5-------------------------------------
D|----------------------------15-----15--15-----15--15--

Stave 23:

E|--------------------------------------------------
B|--------------------------------------------------
G|--5-----5--5-----5--5-----5--5-----5--5-----5--5--
D|--5-----5--0-----0--3-----3--3-----3--3-----3--3--
A|--3-----3--0-----0--3-----3--3-----3--3-----3--3--
D|--5-----5--0-----0--3-----3--3-----3--3-----3--3--

Stave 24:

E|--------------------------------------------1--1--
B|--------------------------------------------------
G|--5-----5--5-----5--5-----5--5-----5--5-----------
D|--5-----5--0-----0--3-----3--3-----3--3-----------
A|--3-----3--0-----0--3-----3--3-----3--3-----------
D|--5-----5--0-----0--3-----3--3-----3--3-----------

Stave 25:

E|--------------------------------------------------|--------------------------------------------------
B|--------------------------------------------------|--------------------------------------------------
G|-----------7--------5-----5--5-----5--5-----5--5--|--5-----5--5-----5--7-----7--7-----7--7-----7--7--
D|--0-----0-----0--0-----------------------------0--|--3-----3--3-----3--5-----5--5-----5--5-----5--5--
A|--0-----0--5--0--0--3-----3--3-----3--3-----3--0--|--3-----3--3-----3--5-----5--5-----5--5-----5--5--
D|--0-----0-----0--0-----------------------------0--|--3-----3--3-----3--5-----5--5-----5--5-----5--5--

Stave 26:

E|--------------------------------------------------|-----------------------------------------------------
B|--------------------------------------------------|-----------------------------------------------------
G|-----------7--------5-----5--5-----5--5-----5--5--|--5-----5--5-----5--7-----7--7-----7--12-----12--12--
D|--0-----0-----0--0-----------------------------0--|--3-----3--3-----3--5-----5--5-----5--10-----10--10--
A|--0-----0--5--0--0--3-----3--3-----3--3-----3--0--|--3-----3--3-----3--5-----5--5-----5--0------0---0---
D|--0-----0-----0--0-----------------------------0--|--3-----3--3-----3--5-----5--5-----5-----------------

Stave 27:

E|-----------1--1-----1-----1-----1--1--5-----5--1--1-----1-----1-----1--1--
B|--------------------------------------5-----5-----------------------------
G|--7-----7--------7-----7-----7--------5-----5--------7-----7-----7--------
D|--7-----7--------7-----7-----7--------5-----5--------7-----7-----7--------
A|--5-----5--------5-----5-----5--------5-----5--------5-----5-----5--------
D|--------------------------------------------------------------------------

Stave 28:

E|-----------1--1-----1-----1-----1--1--10-----10--1--1-----1-----1-----1--1--
B|--------------------------------------10-----10-----------------------------
G|--7-----7--------7-----7-----7--------10-----10--------7-----7-----7--------
D|--7-----7--------7-----7-----7--------10-----10--------7-----7-----7--------
A|--5-----5--------5-----5-----5--------10-----10--------5-----5-----5--------
D|----------------------------------------------------------------------------

Stave 29:

E|-----------1--1-----1-----1-----1--1--15-----15--1--1-----1-----1-------------
B|--------------------------------------15-----15-------------------------------
G|--7-----7--------7-----7-----7--------15-----15--------7-----7-----7-----7----
D|--7-----7--------7-----7-----7--------15-----15--------7-----7-----7-----7--3-
A|--5-----5--------5-----5-----5--------15-----15--------5-----5-----5-----5--3-
D|----------------------------------------------------------------------------3/

Stave 30:

E|-------------------------------------------------
B|-------------------------------------------------
G|--19-----19--19-----19--19-----19--19-----19-----
D|--19-----19--19-----19--19-----19--19-----19--17-
A|--17-----17--17-----17--17-----17--17-----17--17-
D|----------------------------------------------17\

Stave 31:

E|--------------------------------------
B|--------------------------------------
G|--------------------------------------
D|--------------------------------------
A|--------------------------------------
D|--0-----0--0--1p0--0--2p0--0--3p0--0--

Stave 32:

E|---------------------------------
B|---------------------------------
G|---------------------------------
D|---------------------------------
A|-------------------0--2-0--0--3--
D|--0-----0--0--1p0--0--2p0--0--3--

http://www.guitartabcreator.com
Guitar Tab Creator is intended to store guitar tab created through the tool. It currently does not support in-line text editing. Any text you place in here will be lost. If you need to comment on your tab, please use the "Tab Notes" section located below.