Sound will begin in 5 seconds

Ego Trip

Chords
01234567891011121314151617181920212223
E
B
G
D
A
E
B
0 1 2 3 4 5 6 7 8 9 10 11 12 13 14 15 16 17 18 19 20 21 22 23
Song Science #1: How Pros Use 6 Chords to Write Hit Songs
(/) Slide Up  (\) Slide Down  (h) Hammer On  (p) Pull Off  (b) Bend (r) Release (v) Vibrato

Stave 1:

E|--------------------------------------------------
B|--------------------------------------------------
G|--------------------------------------------------
D|--------------------------------------------------
A|--7--0--0--0--7--0--0--0--3--0--0--0--3--0--0--0--
D|--7--0--0--0--7--0--0--0--3--0--0--0--3--0--0--0--

Stave 2:

E|--------------------------------------------------
B|--------------------------------------------------
G|--7-----------------------------------------------
D|--7-----0--0--0--0--0--0--7--7--7--7--3--3--3--3--
A|--5-----0--0--0--0--0--0--7--7--7--7--3--3--3--3--
D|--------0--0--0--0--0--0--7--7--7--7--3--3--3--3--

Stave 3:

E|--------------------------------------------------------------
B|--------------------------------------------------------------
G|--------------------------------------------------------------
D|-----------3--------------------------------------------------
A|--3--3--3--3-----0--2--3--5--3--2--0--0-----0-----0-----0-----
D|--3--3--3--3-----0--2--3--5--3--2--0-----0-----0-----0-----0--

Stave 4:

E|--------------------------------------------------------------
B|--------------------------------------------------------------
G|--------------------------------------------------------------
D|-----------3--------------------------------------------------
A|--3--3--3--3-----0--1--2--3--2--1--0--0-----0-----0-----0-----
D|--3--3--3--3-----0--1--2--3--2--1--0-----0-----0-----0-----0--

Stave 5:

E|--------------------------------------------------------------
B|--------------------------------------------------------------
G|--------------------------------------------------------------
D|-----------3--------------------------------------------------
A|--3--3--3--3-----0--2--3--5--3--2--0--0-----0-----0-----0-----
D|--3--3--3--3-----0--2--3--5--3--2--0-----0-----0-----0-----0--

Stave 6:

E|--------------------------------------------------
B|--------------------------------------------------
G|--------------------------------------------------
D|-----------3--------------------------------------
A|--3--3--3--3-----0--1--2--3--2--1--0--5--3--7--8--
D|--3--3--3--3-----0--1--2--3--2--1--0--5--3--7--8--

Stave 7:

E|--------------------------------------------------------------------------------------------------
B|--------------------------------------------------------------------------------------------------
G|--------------------------------------------------------------------------------------------------
D|--------------------------------------------------------------------------------------------------
A|--0-----0-----0-----0-----0-----0-----0-----0-----0-----0-----0-----0-----0-----0-----0-----0-----
D|-----0-----0-----0-----0-----0-----0-----0-----0-----0-----0-----0-----0-----0-----0-----0-----0--

Stave 8:

E|--------------------------------------------------------------------------------------------------
B|--------------------------------------------------------------------------------------------------
G|--------------------------------------------------------------------------------------------------
D|--7--0--7--0--7--0--7--0--7--0--7--0--7--0--7--0--3--3--3--3--9--9--1--2--3--3--9--0--3--4--5--0--
A|--7--0--7--0--7--0--7--0--7--0--7--0--7--0--7--0--3--3--3--3--9--9--1--2--3--3--9--0--3--4--5--0--
D|--7--0--7--0--7--0--7--0--7--0--7--0--7--0--7--0--3--3--3--3--9--9--1--2--3--3--9--0--3--4--5--0--

Stave 9:

E|--------------------------------------------------------------------------------------------------
B|--------------------------------------------------------------------------------------------------
G|--------------------------------------------------------------------------------------------------
D|--7--0--7--0--7--0--7--0--7--0--7--0--7--0--7--0--3--3--3--3--9--9--1--2--3--3--9--9--3--2--1--0--
A|--7--0--7--0--7--0--7--0--7--0--7--0--7--0--7--0--3--3--3--3--9--9--1--2--3--3--9--9--3--2--1--0--
D|--7--0--7--0--7--0--7--0--7--0--7--0--7--0--7--0--3--3--3--3--9--9--1--2--3--3--9--9--3--2--1--0--

Stave 10:

E|-----------------------------------------
B|-----------------------------------------
G|-----------------------------------------
D|--3--3--3--3--9--9--1--2--3--3--9--9--9--
A|--3--3--3--3--9--9--1--2--3--3--9--9--9--
D|--3--3--3--3--9--9--1--2--3--3--9--9--9--

Stave 11:

E|--------------------------------------------------------------------------------------------------
B|--------------------------------------------------------------------------------------------------
G|--------------------------------------------------------------------------------------------------
D|-----------3-----------------------------------------------3--------------------------0-----0-----
A|--3--3--3--3-----0--2--3--5--3--2--0--0-----0-----3--3--3--3-----0--1--2--3--2--1--0--------------
D|--3--3--3--3-----0--2--3--5--3--2--0-----0-----0--3--3--3--3-----0--1--2--3--2--1--0-----0-----0--

Stave 12:

E|--------------------------------------------------------------------------------------------------
B|--------------------------------------------------------------------------------------------------
G|--------------------------------------------------------------------------------------------------
D|-----------3-----------------------------------------------3--------------------------------------
A|--3--3--3--3-----0--2--3--5--3--2--0--0-----0-----3--3--3--3-----0--1--2--3--2--1--0--5--3--6--7--
D|--3--3--3--3-----0--2--3--5--3--2--0-----0-----0--3--3--3--3-----0--1--2--3--2--1--0--5--3--6--7--

Stave 13:

E|--------------------------------------------------------------------------------------9--9--9--9--
B|--------------------------------------------------------------------------------------9--9--9--9--
G|--------------------------------------------------------------------------------------9--9--9--9--
D|--------------------------------------------------------------------------------------9--9--9--9--
A|--0-----0-----0-----0-----0-----0-----0-----0-----0-----0-----0-----0-----0-----0-----9--9--9--9--
D|-----0-----0-----0-----0-----0-----0-----0-----0-----0-----0-----0-----0-----0-----0--9--9--9--9--

Stave 14:

E|--------------------------------------------------------------
B|--------------------------------------------------------------
G|--------------------------------------------------------------
D|--3--3--3--3--9--9--1--2--3--3--9--9--5--5--6--6--7--7--7--7--
A|--3--3--3--3--9--9--1--2--3--3--9--9--3--3--4--4--5--5--5--5--
D|--3--3--3--3--9--9--1--2--3--3--9--9--------------------------

Stave 15:

E|----------------------------------------
B|----------------------------------------
G|----------------------------------------
D|--3--3--3--3--9--9--1--2--3--3--9--9--3/
A|--3--3--3--3--9--9--1--2--3--3--9--9--3-
D|--3--3--3--3--9--9--1--2--3--3--9--9--3-

Stave 16:

E|-----------------------------------------------------------------
B|-----------------------------------------------------------------
G|-----------------------------------------------------------------
D|-----------------------------------------------------------------
A|--12------12------12------12------12------12------12------12-----
D|------12------12------12------12------12------12------12------12\

Stave 17:

E|-------------------------------------------------
B|-------------------------------------------------
G|-------------------------------------------------
D|-------------------------------------------------
A|--8-----8-----8-----8-----8-----8-----8-----8----
D|-----8-----8-----8-----8-----8-----8-----8-----8/

Stave 18:

E|--------------------------------------------------
B|--------------------------------------------------
G|--------------------------------------------------
D|--------------------------------------------------
A|--7--0--0--0--7--0--0--0--3--0--0--0--3--0--0--0--
D|--7--0--0--0--7--0--0--0--3--0--0--0--3--0--0--0--

Stave 19:

E|--------------------------------------------------
B|--------------------------------------------------
G|--7-----------------------------------------------
D|--7-----0--0--0--0--0--0--7--7--7--7--3--3--3--3--
A|--5-----0--0--0--0--0--0--7--7--7--7--3--3--3--3--
D|--------0--0--0--0--0--0--7--7--7--7--3--3--3--3--

Stave 20:

E|-----------------------
B|-----------------------
G|-----------------------
D|-----------------------
A|--0--2--3--5--3--2--0--
D|--0--2--3--5--3--2--0--

http://www.guitartabcreator.com
Guitar Tab Creator is intended to store guitar tab created through the tool. It currently does not support in-line text editing. Any text you place in here will be lost. If you need to comment on your tab, please use the "Tab Notes" section located below.