Sound will begin in 5 seconds

Did I Remember?

Chords
01234567891011121314151617181920212223
E
B
G
D
A
E
B
0 1 2 3 4 5 6 7 8 9 10 11 12 13 14 15 16 17 18 19 20 21 22 23
Top Courses in Music 160x600
(/) Slide Up  (\) Slide Down  (h) Hammer On  (p) Pull Off  (b) Bend (r) Release (v) Vibrato

Stave 1:

A |--------------3-----------2-----------1-----------6-----------4-----------4--6-----5-----4-----4-----
Eb|-----------4-----------2-----------0-----------6-----------5-----------4-----7-----5-----5-----4-----
C |--------3-----------2-----------0-----------5-----------5-----------3--------7-----5-----5-----3-----
Gb|-----2-----------1-----------0-----------6-----------4-----------4-----------6-----5-----4-----4-----

Stave 2:

A |-----------3-----------2-----------1-----------6-----------4-----------4--1--------3--------
Eb|--------4-----------2-----------0-----------5-----------5-----------4-----3--------2--------
C |-----3-----------2-----------0-----------5-----------5-----------3--------0--------3--------
Gb|--2-----------1-----------0-----------6-----------4-----------4-----------2--------3--------

Stave 3:

A |--4--------7--------6--------------8--------------7--------4--------
Eb|--5--------7--------5--------------8--------------8--------4--------
C |--5--------7--------5--------------7--------------7--------3--------
Gb|--4--------6--------6--------------8--------------6--------4--------

Stave 4:

A |-----------3-----------2-----------1-----------6-----------4-----------4--
Eb|--------4-----------2-----------0-----------6-----------5-----------4-----
C |-----3-----------2-----------0-----------5-----------5-----------3--------
Gb|--2-----------1-----------0-----------6-----------4-----------4-----------

Stave 5:

A |-------------------------------11--
Eb|----------------------------9------
C |-----8---------8---------8---------
Gb|--9-----9--10-----10--9------------

http://www.guitartabcreator.com
Guitar Tab Creator is intended to store guitar tab created through the tool. It currently does not support in-line text editing. Any text you place in here will be lost. If you need to comment on your tab, please use the "Tab Notes" section located below.