Sound will begin in 5 seconds

I Love The USA (Rough)

01234567891011121314151617181920212223
E
B
G
D
A
E
B
0 1 2 3 4 5 6 7 8 9 10 11 12 13 14 15 16 17 18 19 20 21 22 23
Top Courses in Music 160x600
(/) Slide Up  (\) Slide Down  (h) Hammer On  (p) Pull Off  (b) Bend (r) Release (v) Vibrato

Stave 1:

E|--8---------------------------------------------------------------------------------------------------
B|-----10-----------------------------------------------------------------------------------------------
G|---------10-------------------------------------------------------------------------------------------
D|------------------------------------------------------------------------------------------------------
A|-------------10v--/12v--/17v--19--19--17------12--13--12--10--12--13--12--10--12--13--12--10--12--13--
E|------------------------------------------19----------------------------------------------------------

Stave 2:

E|----------------------------------------------------------------------------8--8--8------------------
B|---------------------------------------10--10--10--8--11--10--8----------------------10--------------
G|----------10--8/10--10--9--9--9--9--7----------------------------10--9--10---------------12--12--12--
D|-----------------------------------------------------------------------------------------------------
A|--12--10---------------------------------------------------------------------------------------------
E|-----------------------------------------------------------------------------------------------------

Stave 3:

E|--------------------------------------------------------------------------10------------------
B|------------------------------13--13--13--10--13--13--13--10--13--13--13----------------------
G|--10--10--10--10--10--12--12--------------------------------------------------12--12--12--10--
D|----------------------------------------------------------------------------------------------
A|----------------------------------------------------------------------------------------------
E|----------------------------------------------------------------------------------------------

Stave 4:

E|----------------------------------------------------------------------------------------------
B|----------------------------------------------------------------------------------------------
G|--10--10--10--10--12--10------10--10--10--10--10--12--10----------10--12--10--12--10--12--10--
D|--------------------------12------------------------------12--10------------------------------
A|----------------------------------------------------------------------------------------------
E|----------------------------------------------------------------------------------------------

http://www.guitartabcreator.com
Guitar Tab Creator is intended to store guitar tab created through the tool. It currently does not support in-line text editing. Any text you place in here will be lost. If you need to comment on your tab, please use the "Tab Notes" section located below.