Sound will begin in 5 seconds

thunderhorse acoustic

Chords
01234567891011121314151617181920212223
E
B
G
D
A
E
B
0 1 2 3 4 5 6 7 8 9 10 11 12 13 14 15 16 17 18 19 20 21 22 23
Top Courses in Music 160x600
(/) Slide Up  (\) Slide Down  (h) Hammer On  (p) Pull Off  (b) Bend (r) Release (v) Vibrato

Stave 1:

E|--------------------------------------------------------------------------------------------------
B|--------------------------------------------------------------------------------------------------
G|--------------------------------------------------------------------------------------------------
D|--2-----------2-----------2-----------9-----------------------------------------------------------
A|--0--0--0--0--0--0--0--0--0--0--0--0--7--0--0--0--2-----------2-----------2-----------9-----------
E|--------------------------------------------------0--0--0--0--0--0--0--0--0--0--0--0--7--0--0--0--

Stave 2:

E|----------------------------------------------------
B|----------------------------------------------------
G|--------------2h3p2--------------------2h3p2--------
D|--------2------------3--2--------2------------3--2--
A|--0--0-----0---------------0--0-----0---------------
E|----------------------------------------------------

Stave 3:

E|----------------------------------------------------------------------------
B|--10--9--10--12b13--12--10--12--13b15--13--12--13--15b17--15b17r15--13--15--
G|----------------------------------------------------------------------------
D|----------------------------------------------------------------------------
A|----------------------------------------------------------------------------
E|----------------------------------------------------------------------------

Stave 4:

E|----------------------------------------------------19b20--19b20r19--17--19--
B|--13--12--13--15b17--15--13--15--17b18--17--15--17---------------------------
G|-----------------------------------------------------------------------------
D|-----------------------------------------------------------------------------
A|-----------------------------------------------------------------------------
E|-----------------------------------------------------------------------------

Stave 5:

E|-----_--
B|-----_--
G|-----_--
D|--8--_--
A|-----_--
E|-----11--

http://www.guitartabcreator.com
Guitar Tab Creator is intended to store guitar tab created through the tool. It currently does not support in-line text editing. Any text you place in here will be lost. If you need to comment on your tab, please use the "Tab Notes" section located below.