Sound will begin in 5 seconds

WHITE LYES

01234567891011121314151617181920212223
E
B
G
D
A
E
B
0 1 2 3 4 5 6 7 8 9 10 11 12 13 14 15 16 17 18 19 20 21 22 23
Song Science #1: How Pros Use 6 Chords to Write Hit Songs
(/) Slide Up  (\) Slide Down  (h) Hammer On  (p) Pull Off  (b) Bend (r) Release (v) Vibrato

Stave 1:

B|--------------------------------------------------------------------------
G|--------------------------------------------------------------------------
D|--------------------------------------------------------------------------
A|--------------------------------------------------------------------------
E|-----------------------------1-----------------------------------4--------
A|--0--0--0--0--0--0--3--2--0-----2--1--0--0--0--0--0--0--2--1--0-----2--1--

Stave 2:

B|--------------------------------------------------------------------------
G|--------------------------------------------------------------------------
D|--------------------------------------------------------------------------
A|--------------------------------------------------------------------------
E|-----------------------------1--------6--------5--------1--------1--------
A|--0--0--0--0--0--0--3--2--0-----2--1-----4--3-----3--2-----3--2-----2--1--

Stave 3:

B|--------------------------------------------------------------------------
G|--------------------------------------------------------------------------
D|--------------------------------------------------------------------------
A|--------------------------------------------------------------------------
E|-----------------------------1-----------------------------------4--------
A|--0--0--0--0--0--0--3--2--0-----2--1--0--0--0--0--0--0--2--1--0-----2--1--

Stave 4:

B|--------------------------------------------------------------------------
G|--------------------------------------------------------------------------
D|--------------------------------------------------------------------------
A|--------------------------------------------------------------------------
E|-----------------------------1--------6--------5--------8--------7--------
A|--0--0--0--0--0--0--3--2--1-----2--1-----4--3-----3--2-----6--5-----5--4--

Stave 5:

B|--------------------------------------------------------------------------
G|--------------------------------------------------------------------------
D|--------------------------------------------------------------------------
A|--------------------------------------------------------------------------
E|--8--------8--------8--------8--------7--------7--------6--------6--------
A|-----6--5-----6--5-----6--5-----6--5-----5--4-----5--4-----4--3-----4--3--

Stave 6:

B|--------------------------------------------------------
G|--------------------------------------------------------
D|--------------------------------------------------------
A|--------------------------------------------------------
E|-----------------------------1--1--1--------------------
A|--0--0--0--2--2--2--3--3--3-----------3--3--3--2--2--2--

Stave 7:

B|--------------------------------------------------------------------------
G|--------------------------------------------------------------------------
D|--------------------------------------------------------------------------
A|--------------------------------------------------------------------------
E|--8--------8--------8--------8--------9--------9--------7--------7--------
A|-----6--5-----6--5-----6--5-----6--5-----7--6-----7--6-----5--4-----5--4--

Stave 8:

B|--------------------------------------------------------
G|--------------------------------------------------------
D|--------------------------------------------------------
A|--------------------------------------------------------
E|-----------------------------1--1--1--------------------
A|--0--0--0--2--2--2--3--3--3-----------3--3--3--2--2--2--

Stave 9:

B|----------------------------------------------------------------------------
G|----------------------------------------------------------------------------
D|----------------------------------------------------------------------------
A|----------------------------------------------------------------------------
E|--8--------8--------8--------8--------7--------7--------10--------10--------
A|-----6--5-----6--5-----6--5-----6--5-----5--4-----5--4------8--7------8--7--

http://www.guitartabcreator.com
Guitar Tab Creator is intended to store guitar tab created through the tool. It currently does not support in-line text editing. Any text you place in here will be lost. If you need to comment on your tab, please use the "Tab Notes" section located below.