Sound will begin in 5 seconds

Your God

Chords
01234567891011121314151617181920212223
E
B
G
D
A
E
B
0 1 2 3 4 5 6 7 8 9 10 11 12 13 14 15 16 17 18 19 20 21 22 23
Song Science #1: How Pros Use 6 Chords to Write Hit Songs
(/) Slide Up  (\) Slide Down  (h) Hammer On  (p) Pull Off  (b) Bend (r) Release (v) Vibrato

Stave 1:

E|----------------------------------------------------------------------------------------
B|----------------------------------------------------------------------------------------
G|----------------------------------------------------------------------------------------
D|----------------------------------------------------------------------------------------
A|---5-6------5-6------5------5-6------5-6-9---------5-6------5-6-3-5----9-10-9-6-9-6-5-6-
E|----------------------------------------------------------------------------------------
B|-3--------3--------3------3--------3-------------3--------3-----------------------------

Stave 2:

E|--------------------------------------------------------------
B|--------------------------------------------------------------
G|--------------------------------------------------------------
D|--------------------------------------------------------------
A|----------------------4---------------------------------------
E|-----5-6-5--------5-6----------5-6-5----7--------6--------5---
B|-3-3----------3-3----------3-3------------8-7------7-6------6-

Stave 3:

E|-------------------------------
B|-------------------------------
G|-------------------------------
D|-------------------------------
A|-5-------5-5----5-5-5----5-5-5-
E|-5-------5-5----5-5-5----5-5-5-
B|-3-------3-3----3-3-3----3-3-3-

Stave 4:

E|-------------------------
B|-------------------------
G|-------------------------
D|-12----------------------
A|----13-12----------------
E|----------15-13-12-13-10-
B|-------------------------

Stave 5:

E|--------------------------------------------------------------
B|--------------------------------------------------------------
G|--------------------------------------------------------------
D|--------------------------------------------------------------
A|--------------------------------------------------------------
E|--------------------------------3-----------------------5-6-3-
B|-1-3-4-1-3-4-3-1----1-3-4-1-3-4-1----1-3-4-1-3-4-3-1----3-4-1-

Stave 6:

E|-----------------------------------------------------------
B|-----------------------------------------------------------
G|-----------------------------7-----------------------------
D|---7-8---7-8---7---7-8---7-8--------7-8---7-8---7----------
A|-5-----5-----5---5-----5----------5-----5-----5------3-5-6-
E|-----------------------------------------------------3-5-6-
B|-----------------------------------------------------1-3-4-

http://www.guitartabcreator.com
Guitar Tab Creator is intended to store guitar tab created through the tool. It currently does not support in-line text editing. Any text you place in here will be lost. If you need to comment on your tab, please use the "Tab Notes" section located below.