Sound will begin in 5 seconds

Waterfalls and Reverb

Chords
01234567891011121314151617181920212223
E
B
G
D
A
E
B
0 1 2 3 4 5 6 7 8 9 10 11 12 13 14 15 16 17 18 19 20 21 22 23
Top Courses in Music 160x600
(/) Slide Up  (\) Slide Down  (h) Hammer On  (p) Pull Off  (b) Bend (r) Release (v) Vibrato

Stave 1:

E|-----------------------------------------------------------------------------------2--0--------------
B|-----------------------------------------------------------------7-----------------------------------
G|-----------------9--11--------------12--8--9--9--11--9-----------8--8--6--------4-----4--------2-----
D|--------------9--9--11-----------9--9---7--9--9--11--9--------9-----9--7-----4--------4-----2--------
A|--------9h11------------------9----------------------------9-----------------------------------------
E|-----0------------------9/11------------8--9--9--11--9--7-----------7--5--4-----------4--2-----------

Stave 2:

E|--------0-----
B|-----------5--
G|--4--6-----6--
D|--4--5-----7--
A|-----4-----7--
E|--4--5-----5--

http://www.guitartabcreator.com
Guitar Tab Creator is intended to store guitar tab created through the tool. It currently does not support in-line text editing. Any text you place in here will be lost. If you need to comment on your tab, please use the "Tab Notes" section located below.