Sound will begin in 5 seconds

asi naci

Chords
01234567891011121314151617181920212223
E
B
G
D
A
E
B
0 1 2 3 4 5 6 7 8 9 10 11 12 13 14 15 16 17 18 19 20 21 22 23
Top Courses in Music 160x600
(/) Slide Up  (\) Slide Down  (h) Hammer On  (p) Pull Off  (b) Bend (r) Release (v) Vibrato

Stave 1:

E|--------1--1-3--1--0--1--1-3--1--0--1--1-3--1--0--------------
B|--0--3--3--3-5--3--1--3--3-5--3--1--3--3-5--3--1--3--1--1-----
G|--0--4--------------------------------------------------2-----
D|--------------------------------------------------------------
A|--------------------------------------------------------------
E|--------------------------------------------------------------

Stave 2:

E|--8---8---8--7-----12--12--12--11--10-----12--8-------------8--11--8-----------8--10--7-----------7--10-----
B|--10--10--9--8-----------------------------------10-----10------------9-----9------------8-----8------------
G|-----------------------------------------------------9-------------------8------------------7---------------
D|------------------------------------------------------------------------------------------------------------
A|------------------------------------------------------------------------------------------------------------
E|------------------------------------------------------------------------------------------------------------

Stave 3:

E|--10--10---------8-----
B|--12--11--9--10-----9--
G|-----------------------
D|-----------------------
A|-----------------------
E|-----------------------

Stave 4:

E|--10--10---------8-----_--8--
B|--12--11--9--10-----9--10--8--
G|-----------------------_-----
D|-----------------------_-----
A|-----------------------_-----
E|-----------------------_-----

Stave 5:

E|--10--10---------8---------8---------12--12--10--8---7-----------------
B|--12--11--9--10-----9--10-----9--10--13--13--12--10--8-----------------
G|-------------------------------------_--------------------------------
D|-------------------------------------_--------------------------------
A|-------------------------------------_--------------------------------
E|-------------------------------------_--------------------------------

Stave 6:

E|--------1--1-3--1--0-----------3--------3--------3--------3-----0--0-----0--0-----0--0-----0--0--0--
B|--0--3--3--3-5--3--1--0--4--5-----4--5-----4--5-----4--5-----1--------1--------1--------1--------1--
G|--0--4-------------------------------------------------------------------------------------------0--
D|-------------------------------------------------------------------------------------------------2--
A|-------------------------------------------------------------------------------------------------3--
E|-------------------------------------------------------------------------------------------------0--

http://www.guitartabcreator.com
Guitar Tab Creator is intended to store guitar tab created through the tool. It currently does not support in-line text editing. Any text you place in here will be lost. If you need to comment on your tab, please use the "Tab Notes" section located below.