Sound will begin in 5 seconds

[GUITARRA 2] Pra ti Maria - Xutos e Pontapés

Chords
01234567891011121314151617181920212223
E
B
G
D
A
E
B
0 1 2 3 4 5 6 7 8 9 10 11 12 13 14 15 16 17 18 19 20 21 22 23
Song Science #1: How Pros Use 6 Chords to Write Hit Songs
(/) Slide Up  (\) Slide Down  (h) Hammer On  (p) Pull Off  (b) Bend (r) Release (v) Vibrato

Stave 1:

E|-----
B|-----
G|-----
D|-----
A|-----
E|-----

Stave 2:

E|-----------------13--13-----13p12p10---------13--13-----13p12p10-------------------------
B|--------------------------------------13--------------------------13-----15--15--15--15--
G|-----------------------------------------------------------------------------------------
D|-----------------------------------------------------------------------------------------
A|-----------------------------------------------------------------------------------------
E|-----------------------------------------------------------------------------------------

Stave 3:

E|--15--15--12-----13--13-----13p12p10---------13--13-----13p12p10---------------------
B|--------------------------------------13--------------------------13-----15------13--
G|-----------------------------------------------------------------------------12------
D|-------------------------------------------------------------------------------------
A|-------------------------------------------------------------------------------------
E|-------------------------------------------------------------------------------------

Stave 4:

E|-----8-----8-----8------8------8-----8-----10-----10--
B|-----8-----8-----10-----10-----8-----8-----12-----12--
G|-----9-----9-----10-----10-----9-----9-----12-----12--
D|------------------------------------------------------
A|------------------------------------------------------
E|------------------------------------------------------

Stave 5:

E|-----8-----8-----8------8------8-----8-----10--10--8--
B|-----8-----8-----10-----10-----8-----8-----10--12--8--
G|-----9-----9-----10-----10-----9-----9-----10--12--9--
D|------------------------------------------------------
A|------------------------------------------------------
E|------------------------------------------------------

Stave 6:

E|--13v--------15v--------15b
B|---------------------------
G|---------------------------
D|---------------------------
A|---------------------------
E|---------------------------

Stave 7:

E|----------------------------------------------------------------------
B|--8--8--5-----6--6-----6p5p3--------6--6-----6p5p3--------8--8--8--8--
G|------------------------------5---------------------5-----------------
D|----------------------------------------------------------------------
A|----------------------------------------------------------------------
E|----------------------------------------------------------------------

Stave 8:

E|-------------------------------------------------------------------
B|--8--8--5-----6--6-----6p5p3--------6--6-----6p5p3--------3--------
G|------------------------------5---------------------5-----------5--
D|-------------------------------------------------------------5-----
A|-------------------------------------------------------------------
E|-------------------------------------------------------------------

http://www.guitartabcreator.com
Guitar Tab Creator is intended to store guitar tab created through the tool. It currently does not support in-line text editing. Any text you place in here will be lost. If you need to comment on your tab, please use the "Tab Notes" section located below.