Sound will begin in 5 seconds

Kashmire

Chords
01234567891011121314151617181920212223
E
B
G
D
A
E
B
0 1 2 3 4 5 6 7 8 9 10 11 12 13 14 15 16 17 18 19 20 21 22 23
Top Courses in Music 160x600
(/) Slide Up  (\) Slide Down  (h) Hammer On  (p) Pull Off  (b) Bend (r) Release (v) Vibrato

Stave 1:

E|--0-----------------------------------------------------------------------------------------------------
B|--0-----------------------------------------------------------------------------------------------------
G|--2--2--2--2--2--2-----3--3--3--3--3-----4--4--4--4--4--4-----5--5--5--5--5--5-----7--7--7--2--2--2-----
D|--0--0--0--0--0--0-----0--0--0--0--0-----0--0--0--0--0--0-----0--0--0--0--0--0-----0--0--0--0--0--0-----
A|--5--5--5--5--5--5-----5--5--5--5--5-----5--5--5--5--5--5-----5--5--5--5--5--5-----5--5--5--5--5--5-----
E|--0-----------------0-----------------0--------------------0--------------------0--------------------0--

Stave 2:

E|-----------------------------------------------------------------------------------------12--12--10--10--
B|-----------------------------------------------------------------------------------------0---0---0---0---
G|--3--3--3--3--3--3-----4--4--4-----4--4--4-----5--5--5--5--5--5-----7--7--7-----2--2--2--12--11--10--9---
D|--0--0--0--0--0--0-----0--0--0-----0--0--0-----0--0--0--0--0--0-----0--0--0-----0--0--0--0---0---0---0---
A|--5--5--5--5--5--5-----5--5--5-----5--5--5-----5--5--5--5--5--5-----5--5--5-----5--5--5------------------
E|--------------------0-----------0-----------0--------------------0-----------0---------------------------

Stave 3:

E|--7--7--5--5--3--3-----------12--12--10--10--7--7--5--5--3--3-----------12--12--10--10--7--7--5--5--3--3--
B|--0--0--0--0--0--0-----------0---0---0---0---0--0--0--0--0--0-----------0---0---0---0---0--0--0--0--0--0--
G|--7--6--5--4--3--2-----------12--11--10--9---7--6--5--4--3--2-----------12--11--10--9---7--6--5--4--3--2--
D|--0--0--0--0--0--0--3--2--0--0---0---0---0---0--0--0--0--0--0--3--2--0--0---0---0---0---0--0--0--0--0--0--
A|----------------------------------------------------------------------------------------------------------
E|----------------------------------------------------------------------------------------------------------

Stave 4:

E|-----------
B|-----------
G|-----------
D|--3--2--0--
A|-----------
E|-----------

http://www.guitartabcreator.com
Guitar Tab Creator is intended to store guitar tab created through the tool. It currently does not support in-line text editing. Any text you place in here will be lost. If you need to comment on your tab, please use the "Tab Notes" section located below.