Sound will begin in 5 seconds

Mentatonic

01234567891011121314151617181920212223
E
B
G
D
A
E
B
0 1 2 3 4 5 6 7 8 9 10 11 12 13 14 15 16 17 18 19 20 21 22 23
Song Science #1: How Pros Use 6 Chords to Write Hit Songs
(/) Slide Up  (\) Slide Down  (h) Hammer On  (p) Pull Off  (b) Bend (r) Release (v) Vibrato

Stave 1:

E|--------------------------------------------------------------------------------------------------------
B|--------------------------------------------------------------------------------------------------------
G|--------------------------------------------------------------------------------------------------------
D|--------------------------------------------------------------------------------------------------------
A|--------------------------------------------------------------------------------------------------------
E|--0--0--3p0--5-----------0--0--3p0--5-----------0--0--3p0--5--0--0--3p0--5--0--0--3p0--5--0--0--3p0--5--

Stave 2:

E|-------------------------------------------------------------------------------------------------
B|-------------------------------------------------------------------------------------------------
G|-----------------------------------------------5h7p5-----------------------5h7p5-----------------
D|-----------------------------------------5--7---------7--------------5--7---------7--------------
A|-----------------------------------5--7------------------------5--7------------------------5--7--
E|--7--7--7--7--7--7--7-----5--8--8------------------------5--8------------------------5--8--------

Stave 3:

E|--------------------------------------------------------
B|--------------5-----------------------------------------
G|--------5--7-----7--5-----------------------------------
D|--5--7-----------------7-------5--5-------5--5-------5--
A|--------------------------5h7--------5h7--------5h7-----
E|--------------------------------------------------------

Stave 4:

E|------------------------------------------------------------------------------------
B|------------------------------------------------------------------------------------
G|------------------------------------------------------------------------------------
D|------------------------------------------------------------------------------------
A|--0--0--3p0--5--------0--0--3p0--5--------0--0--3p0--5--0--0--3p0--5--0--0--3p0--5--
E|------------------------------------------------------------------------------------

Stave 5:

E|-------------------------------------------------------------------------------------------------
B|-------------------------------------------------------------------------------------------------
G|-----------------------------------------5h7p5--7--------------------5h7p5-----------------------
D|-----------------------------------5--7------------------------5--7---------7--------------5--7--
A|--7--7--7--7--7--7--7--------5--7------------------------5--7------------------------5--7--------
E|-----------------------5--8------------------------5--8------------------------5--8--------------

Stave 6:

E|--------------5--8-----8p5---------------
B|--------5--8----------------8p5----------
G|--5--7---------------------------7p5-----
D|--------------------------------------7--
A|-----------------------------------------
E|-----------------------------------------

http://www.guitartabcreator.com
Guitar Tab Creator is intended to store guitar tab created through the tool. It currently does not support in-line text editing. Any text you place in here will be lost. If you need to comment on your tab, please use the "Tab Notes" section located below.