Sound will begin in 5 seconds

30 years later

01234567891011121314151617181920212223
E
B
G
D
A
E
B
0 1 2 3 4 5 6 7 8 9 10 11 12 13 14 15 16 17 18 19 20 21 22 23
Song Science #1: How Pros Use 6 Chords to Write Hit Songs
(/) Slide Up  (\) Slide Down  (h) Hammer On  (p) Pull Off  (b) Bend (r) Release (v) Vibrato

Stave 1:

E|----------------------------------------------------------------------------------------
B|----------------------------------------------------------------------------------------
G|-----------------------------------------------5--5--4----------------------------------
D|----------5--7-----7--5-------------5--7--5h7-----------5----------5--7-----------7--5--
A|--5--5h7--------------------5--5h7-------------------------5--5h7--------------7--------
E|----------------------------------------------------------------------------------------

Stave 2:

E|----------------------------------------------------------------------------------
B|-----------------------------------------8--10--------10--8----------8--10--8h10--
G|---------------------5--5--4-----7--7h9------------9---------7--7h9---------------
D|----------5--7--5h7-----------5---------------------------------------------------
A|--5--5h7--------------------------------------------------------------------------
E|----------------------------------------------------------------------------------

Stave 3:

E|--8--8--7---------------------------------------------------------8--8--7-----------
B|-----------8----------8--10-----------10--8----------8--10--8h10-----------8--------
G|--------------7--7h9-------------------------7--7h9---------------------------9--7--
D|------------------------------------------------------------------------------------
A|------------------------------------------------------------------------------------
E|------------------------------------------------------------------------------------

Stave 4:

E|--------------------------------------------------------------------------------------
B|-------5--------------------------------------------5---------------------------------
G|--5h7-------------5-------------4--5--4--5--7--5h7-------------5-------------4--5--4--
D|----------7--5h7-------------5-------------------------7--5h7-------------5-----------
A|---------------------7--5h7---------------------------------------7--5h7--------------
E|--------------------------------------------------------------------------------------

Stave 5:

E|--------------------------------------------------------------------7--------------------
B|----------------------------------------------------------8--10--------8----------8--10--
G|--------------------------------------5--4--------7--7h9------------------7--7h9---------
D|-------5--7--7--5----------5--7--5h7-----------5-----------------------------------------
A|--5h7--------------5--5h7----------------------------------------------------------------
E|-----------------------------------------------------------------------------------------

Stave 6:

E|-----------------------------
B|--8--------------------------
G|-----9--7--------------------
D|-----------10--9--7--5h7--7--
A|-----------------------------
E|-----------------------------

http://www.guitartabcreator.com
Guitar Tab Creator is intended to store guitar tab created through the tool. It currently does not support in-line text editing. Any text you place in here will be lost. If you need to comment on your tab, please use the "Tab Notes" section located below.