Sound will begin in 5 seconds

Dust in the Wind Solo

01234567891011121314151617181920212223
E
B
G
D
A
E
B
0 1 2 3 4 5 6 7 8 9 10 11 12 13 14 15 16 17 18 19 20 21 22 23
Top Courses in Music 160x600
(/) Slide Up  (\) Slide Down  (h) Hammer On  (p) Pull Off  (b) Bend (r) Release (v) Vibrato

Stave 1:

E|-----------------------------7--8--10-----------------------------------------------
B|----------------------8--10-------------------------------------10--12--13--12--10--
G|--9--7-------------7------------------------------------10--12----------------------
D|--------10--9--10----------------------10--9--7--9--10------------------------------
A|------------------------------------------------------------------------------------
E|------------------------------------------------------------------------------------

Stave 2:

E|----------------------------------------0--0------------------------------12--13--15--
B|--12--13--12--10------10----------------------12--13--12--10--12--13--15--------------
G|------------------12------12--9------9------------------------------------------------
D|---------------------------------12---------------------------------------------------
A|--------------------------------------------------------------------------------------
E|--------------------------------------------------------------------------------------

Stave 3:

E|--17--15--13--15--13------13--------------------------------------
B|----------------------17------17--15--17--15--13--15--13--12------
G|--------------------------------------------------------------14--
D|------------------------------------------------------------------
A|------------------------------------------------------------------
E|------------------------------------------------------------------

Stave 4:

E|----------------------------------------------13--17--15--15--
B|------12--13------12--13--15--17--13--15--17------------------
G|--14----------14----------------------------------------------
D|--------------------------------------------------------------
A|--------------------------------------------------------------
E|--------------------------------------------------------------

http://www.guitartabcreator.com
Guitar Tab Creator is intended to store guitar tab created through the tool. It currently does not support in-line text editing. Any text you place in here will be lost. If you need to comment on your tab, please use the "Tab Notes" section located below.