Sound will begin in 5 seconds

Nummer 20-1

Chords
01234567891011121314151617181920212223
E
B
G
D
A
E
B
0 1 2 3 4 5 6 7 8 9 10 11 12 13 14 15 16 17 18 19 20 21 22 23
Song Science #1: How Pros Use 6 Chords to Write Hit Songs
(/) Slide Up  (\) Slide Down  (h) Hammer On  (p) Pull Off  (b) Bend (r) Release (v) Vibrato

Stave 1:

E|-------------------------------------------------------------------------|-------------------------|-
B|-------------------------------------------------------------------------|-------------------------|-
G|-------------------------------------------------------------------------|-------------8-8-8-8-8-8-|-
D|-------------------------------------------------------------------------|-------------6-6-6-6-6-6-|-
A|-------------------------------------------------------------------------|-------------------------|-
E|-0-0----0-0-0-0p---0----0----0----0-0----0-0-0----0----------0----0----0-|-0-0-0-0-0-0-------------|-

Stave 2:

E|--------------------------------------------------------------------------------------|-
B|--------------------------------------------------------------------------------------|-
G|--------------------------------------------------------------------------------------|-
D|--------------------------------------------------------------------13-13-13-13-13-13-|-
A|-12-0-0-12-0-12\15\12-12-0-12-0-12/11-0-0-11-0-0-11-0-0-11-11-11-11-11-11-11-11-11-11-|-
E|--------------------------------------------------------------------------------------|-

Stave 3:

E|-------------------------------------------------|------------------|--------------------------------|-
B|-------------------------------------------------|------------------|--------------------------------|-
G|-------------------------------------------------|------------------|--------------------------------|-
D|---------------------------------8---8-------8---|-8---8-------8\11-|--------------------------------|-
A|-7-----------6-------6---9-----------------------|------------------|--------------------------------|-
E|---5-4-5-4/2---4-3-4---4---7-6-7---6---7-6-7---6-|---6---7-6-7------|-0-0-0-0-0----0-0-0----0-0-0----|-

Stave 4:

E|---------------------------------------------------------------------|-
B|---------------------------------------------------------------------|-
G|---------------------------------------------------------------------|-
D|-------9---8-8-8----------------------------9---8-5-5-4----4-4-7-7-7-|-
A|-------7---6-6-6-1-1-1-1-1----1-1-1-1-------7---6-3-3-2----2-2-5-5-5-|-
E|-0-0-0-7-0-6-0-0-0-0-0-0-0----0-0-0-0-0-0-0-7-0-6-3-3-2----2-2-5-5-5-|-

Stave 5:

E|-------------------------------------------------|-------------------------------|-
B|-------------------------------------------------|-------------------------------|-
G|-------------------------------------------------|-------------------------------|-
D|-------------------------------------------------|-------------------------------|-
A|-7-----------------6---5-5-----6---5-5-----------|-6---5-5-----9---8-8-----------|-
E|---0-5-6-5-3-2-2-2---3-----2-2---3-----2-2-2-2-2-|---3-----2-2---6-----5-5-5-5-5-|-

Stave 6:

E|-----------------------------------------------------------|--------------------------------|-
B|-----------------------------------------------------------|--------------------------------|-
G|-----------------------------------------------------------|--------------------------------|-
D|-----------------------------------------------------------|--------------------------------|-
A|-6---6---6/5---5-----5---6---6---6/5---5-----5-------------|--------------------------------|-
E|---3---3-----2---2-2---2---3---3-----2---2-2---2-2-2-2-2-2-|-0-0-0-0-0----0-0-0----0-0-0----|-

http://www.guitartabcreator.com
Guitar Tab Creator is intended to store guitar tab created through the tool. It currently does not support in-line text editing. Any text you place in here will be lost. If you need to comment on your tab, please use the "Tab Notes" section located below.