Sound will begin in 5 seconds

Nummer 17-2

Chords
01234567891011121314151617181920212223
E
B
G
D
A
E
B
0 1 2 3 4 5 6 7 8 9 10 11 12 13 14 15 16 17 18 19 20 21 22 23
Song Science #1: How Pros Use 6 Chords to Write Hit Songs
(/) Slide Up  (\) Slide Down  (h) Hammer On  (p) Pull Off  (b) Bend (r) Release (v) Vibrato

Stave 1:

E|-----------------------------------------------------------------|--
B|-----------------------------------------------------------------|--
G|-----------------------------------------------------------------|--
D|-----------------------------------------------------------------|--
A|--6--7--6--4--7--4--3-----3--------------------------------------|--
E|--4--5--4--2--5--2--1-----1-----0-----0-----0-----0-----0-----0--|--

Stave 2:

E|--------------------------------------------------------------------------|--------------------------------------------------------|--
B|--------------------------------------------------------------------------|--------------------------------------------------------|--
G|--------------------------------------------------------------------------|--------------------------------------------------------|--
D|--------------------------------------------------------------------------|--------------------------------------------------------|--
A|--8-----7-----7--6--7--9--7--6--7--6--8-----7-----7--6--7--9--7--6--7--6--|--6--7--6--4--7--4--3-----3-----------------------------|--
E|-----5-----5--5--4--5--7--5--4--5--4-----5-----5--5--4--5--7--5--4--5--4--|--4--5--4--2--5--2--1-----1-----0--0-----0-----0-----0--|--

Stave 3:

E|-----------------------------------------------------------------------------------|---------------------------------------------------------------|--
B|-----------------------------------------------------------------------------------|---------------------------------------------------------------|--
G|-----------------------------------------------------------------------------------|---------------------------------------------------------------|--
D|-----------7--7--6--7--6-----7--8--8--8--8-----------------------------------------|--9--------9--10--9--------------------------------------------|--
A|--7--------------------------------------------------------------1--3--4--4--4--4--|--7--7-----7--8---7--7-----7--6--7--9--2--3--2--5--7--8--8--8--|--
E|-----5--5-----------------5-----------------5--4--5--7--0--1--0--------------------|--7--5-----7--8---7--5-----5--4--5--7--0--1--0-----------------|--

Stave 4:

E|-----------------------------------------------------------------------------------------------------------------------|--
B|-----------------------------------------------------------------------------------------------------------------------|--
G|-----------------------------------------------------------------------------------------------------------------------|--
D|-----------------------------------------------------------------------------------------------------------------------|--
A|--------------------------------------5--2--2--2--2--2-----------------------------------------5--2--4--4--4--4--4--4--|--
E|--2--3--0--2--2--2--2--2--2--3--0--2--------------------2--3--0--2--2--2--2--2--2--2--3--0--2--------------------------|--

Stave 5:

E|--------------------------------------------------------|--
B|--------------------------------------------------------|--
G|--------------------------------------------------------|--
D|-----------------------------4--------------------------|--
A|-----------------7--7--7--7-----------4--5--5--5--5--5--|--
E|--0--0--0--0--0-----------------2--1--------------------|--

http://www.guitartabcreator.com
Guitar Tab Creator is intended to store guitar tab created through the tool. It currently does not support in-line text editing. Any text you place in here will be lost. If you need to comment on your tab, please use the "Tab Notes" section located below.