Sound will begin in 5 seconds

Nummer 17

Chords
01234567891011121314151617181920212223
E
B
G
D
A
E
B
0 1 2 3 4 5 6 7 8 9 10 11 12 13 14 15 16 17 18 19 20 21 22 23
Song Science #1: How Pros Use 6 Chords to Write Hit Songs
(/) Slide Up  (\) Slide Down  (h) Hammer On  (p) Pull Off  (b) Bend (r) Release (v) Vibrato

Stave 1:

E|--------------------------------------------------------------------------------------------
B|--------------------------------------------------------------------------------------------
G|--------------------------------------------------------------------------------------------
D|-------7-7-6-7-6---7-8-8-8----7-6-7-9---------------------------------9-9-9-----------8-8-8-
A|-7------------------------------------7-8-7-5-7-8-8-8-8----9-10-9-----------8-9-8-----------
E|---5-5-----------5------------------------------------------------7-7-------------6-6-------

Stave 2:

E|---------------------------|---------------------------------------------------
B|---------------------------|---------------------------------------------------
G|---------------------------|-----------------6-7-7-7---------------------------
D|---------------------4-5-3-|-----7-7-------------------------------------------
A|---------------3-1-4-------|-7-------7-8-7-4-----------------------1-3-4-4-4-4-
E|-6-5-6-8-2-1-2-------------|---5---------------------5-4-5-7-0-1-0-------------

Stave 3:

E|------------------------------------------------------------|-
B|------------------------------------------------------------|-
G|------------------------------------------------------------|-
D|------------------------------------------------------7-8-6-|-
A|-4-5-4-2-2-2-2-2-4-5-4-1-1-1-1------------9-8-9-------------|-
E|-2-3-2-----------2-3-2------------6-5-6-8-------8-6-9-------|-

Stave 4:

E|----------------------------------------------------|-------------------------------------------|-
B|----------------------------------------------------|-------------------------------------------|-
G|----------------------------------------------------|-------------------------------------------|-
D|----------------------------------------------------|-------------------------------------------|-
A|---------------------------------7-6-7-9-7----7-6-9-|---------------------------------7-6-7-9-7-|-
E|-0-0-0-0-0-0----0----0----0----0-5-4-5-7-5----5-4-7-|-0-0-0-0-0-0----0----0----0----0-5-4-5-7-5-|-

Stave 5:

E|-----------------------------------------------|-------------------------------------------------|-
B|-----------------------------------------------|-------------------------------------------------|-
G|-----------------------------------------------|-------------------------------------------------|-
D|-------------------------------------------7-8-|-------------------------------------------------|-
A|-----------------8---7---------------8---------|-7-6-7-9-7-6----4-5-2----5-4-5-7-5-4-7-6-7-9-7-6-|-
E|-5-4-5-7-5-4-5-4---5---5-5-4-5-7-5-4---6-5-----|-5-4-5-7-5-4----2-3-0----3-2-3-5-3-2-5-4-5-7-5-4-|-

Stave 6:

E|-----------------------------------------------------|-
B|-----------------------------------------------------|-
G|-----------------------------------------------------|-
D|-----------------------------------------------------|-
A|------------------11---10----------------11-----9-10-|-
E|-8-7-8-10-8-7-8-7----8----8-8-7-8-10-8-7----9-8------|-

Stave 7:

E|------------------------------------------------------------------|-------------------------------------
B|------------------------------------------------------------------|-------------------------------------
G|------------------------------------------------------------------|-------------------------------------
D|---------6----------------------------------------7---------------|---------6---------------------------
A|-8---7-----5--------------2-----------------------------7-8-8-8-8-|-8---7-----5-------3-----------------
E|---5---5-----4----4-4-4-4-0----0----0-0-0-0-0-0-0---6-5-----------|---5---5-----4-0-0-1-0-0-1-1-1-4-4-4-

Stave 8:

E|------------------------------------------------|-
B|------------------------------------------------|-
G|------------------------------------------------|-
D|---------6--------------------------------------|-
A|-8---7-----5-------3-----8-8-8-8-11-11-11-11-11-|-
E|---5---5-----4-0-0-1-0-0------------------------|-

Stave 9:

E|----------------------------------------------------------------------------------------|-
B|----------------------------------------------------------------------------------------|-
G|----------------------------------------------------------------------------------------|-
D|---------3----------------------------6-------------------------------------------------|-
A|-5---4-----2------------------8---7-----5-----------------------------------------------|-
E|---2---2-----1----1-1-1-1-1-1---5---5-----4----4-4-4-4-4-4-0-0-0-0-0-0-0----0----0----0-|-

Stave 10:

E|---------------------------------------------------------------------------|-
B|---------------------------------------------------------------------------|-
G|-------------------------------------------------7-0-6-0-10-0-7-0-6-0-10-0-|-
D|---------3---------------------------------3-------------------------------|-
A|-5---4-----2---8-8-8-8-11-11-11-11-5---4-----2-----------------------------|-
E|---2---2-----1-----------------------2---2-----1---------------------------|-

http://www.guitartabcreator.com
Guitar Tab Creator is intended to store guitar tab created through the tool. It currently does not support in-line text editing. Any text you place in here will be lost. If you need to comment on your tab, please use the "Tab Notes" section located below.