Sound will begin in 5 seconds

Nummer 14

Chords
01234567891011121314151617181920212223
E
B
G
D
A
E
B
0 1 2 3 4 5 6 7 8 9 10 11 12 13 14 15 16 17 18 19 20 21 22 23
Song Science #1: How Pros Use 6 Chords to Write Hit Songs
(/) Slide Up  (\) Slide Down  (h) Hammer On  (p) Pull Off  (b) Bend (r) Release (v) Vibrato

Stave 1:

E|---------------------------------------------------------------------|-----------------|-
B|---------------------------------------------------------------------|-----------------|-
G|---------------------------------------------------------------------|-----------------|-
D|-------------------------------------------------6-7----7-10----10-9-|-----------------|-
A|-------------------------------8-------------------------------------|-----------------|-
E|-0-0-8-7-0-4-0-0-8-7-0-4-0-0-5---0-0-8-7-0-4-0-0-4-5----5-8-----8--7-|-5-4-0-4-1-0-2-1-|-

Stave 2:

E|-------------------------------------------------------------------|-------------------|-
B|-------------------------------------------------------------------|-------------------|-
G|-------------------------------------------------------------------|-------------------|-
D|-------------------------------------------------7-6----6-3----3-3-|-3-4----4-7----7-6-|-
A|-----7-6---3-----7-6---3-----3-6-----7-6---3-----------------------|-------------------|-
E|-0-0-5-4-0-1-0-0-5-4-0-1-0-0-1-4-0-0-5-4-0-1-0-0-5-4----4-1----1-1-|-1-2----2-5----5-4-|-

Stave 3:

E|-----------------------------------------------------------------|-
B|-----------------------------------------------------------------|-
G|-----------------------------------------------------------------|-
D|-------------------------------------------------------6-7-6-7-6-|-
A|-----7-----------3-----2-2-3-3-2-----7-----------3---------------|-
E|-0-0---0-0-4-0-0---0-0-----------0-0---0-0-4-0-0---0-0-----------|-

Stave 4:

E|------------------------------------------------------------------------------|-
B|------------------------------------------------------------------------------|-
G|------------------------------------------------------------------------------|-
D|------------6-6-6-6-6-6----------6-6-6-6-6-6------------6-6-6-7-7-7-10-10-9-9-|-
A|---10-9-6---------------10-9-6-6---------------10-9-6-------------------------|-
E|-0-8--7-4-0-------------8--7-4-4-------------0-8--7-4-0-----------------------|-

Stave 5:

E|-------------------------------------------------------------------------|---------------------|-
B|-------------------------------------------------------------------------|---------------------|-
G|-------------------------------------------------------------------------|---------------------|-
D|-----------3-3-3-3-3-3---------3-3-3-3-3-3-----------3-3-3-4-4-4-7-7-6-6-|---------------------|-
A|---7-6-3---------------7-6-3-3---------------7-6-3-----------------------|-5-5-5-6-6-6-9-9-8-8-|-
E|-0-5-4-1-0-------------5-4-1-1-------------0-5-4-1-0---------------------|---------------------|-

Stave 6:

E|-------------------------------------------------|-
B|-------------------------------------------------|-
G|-------------------------------------------------|-
D|-6-4-3-------------------7-5-4-------7-7-7-------|-
A|-------5-3-2-------3-4-6-------------------------|-
E|-------------3-4-6-------------5-4-2-------4-4-4-|-

Stave 7:

E|---------------------------------|-
B|---------------------------------|-
G|---------------------------------|-
D|---------------------------------|-
A|---------3-6-4-7---------4-7-5-8-|-
E|-4-7-5-8---------5-8-6-9---------|-

Stave 8:

E|-----------------------------------------------------------------|---------------------|-
B|-----------------------------------------------------------------|---------------------|-
G|-----------------------------------------------------------------|---------------------|-
D|-----------------------------------------------4-7----7-8----8-7-|-8-7----7-4----4-5-4-|-
A|---7-6---3-----7-----3-----3-6---7-6---3-------------------------|---------------------|-
E|-0-5-4-0-1-0-0-5-0-0-1-0-0-1-4-0-5-4-0-1-0-0-0-2-5----5-6----6-5-|-6-5----5-2----2-3-2-|-

Stave 9:

E|----------------------------------------------------------------------------------------------------|-
B|----------------------------------------------------------------------------------------------------|-
G|----------------------------------------------------------------------------------------------------|-
D|-6-7-----6-7-6-7-----6-7-9-6-10-6-6-7-----6-7-6-7-----6-7-9-6-10-6-----6-7-----6-7-6-7-----9-6-10-6-|-
A|----------------------------------------------------------------------------------------------------|-
E|-----4-5---------4-5------------------4-5---------4-5--------------4-5-----4-5---------4-5----------|-

Stave 10:

E|----------------------------------|-
B|----------------------------------|-
G|----------------------------------|-
D|----------------------------------|-
A|-----------------7-6-7-7-10-9-7-6-|-
E|-4-4-4-4-4-4-4-4-5-4-5-4-8--7-5-4-|-

http://www.guitartabcreator.com
Guitar Tab Creator is intended to store guitar tab created through the tool. It currently does not support in-line text editing. Any text you place in here will be lost. If you need to comment on your tab, please use the "Tab Notes" section located below.