Sound will begin in 5 seconds

Nummer 13 deel 3

Chords
01234567891011121314151617181920212223
E
B
G
D
A
E
B
0 1 2 3 4 5 6 7 8 9 10 11 12 13 14 15 16 17 18 19 20 21 22 23
Song Science #1: How Pros Use 6 Chords to Write Hit Songs
(/) Slide Up  (\) Slide Down  (h) Hammer On  (p) Pull Off  (b) Bend (r) Release (v) Vibrato

Stave 1:

E|-------------------|--------------------------------------------|-------------------------------------|-
B|-------------------|--------------------------------------------|-------------------------------------|-
G|-------------------|--------------------------------------------|-------------------------------------|-
D|-6-5-5-5-----------|-6-5-5---------------6-5-----9-----10-10-10-|-6-5-5-------------6-5-----------6-6-|-
A|-------------------|-------7-7-7-7-7-7-7-----5-6---8-8----------|-------7-7-7-7-7-7-----5-6-----------|-
E|---------4-3-4-3-4-|--------------------------------------------|---------------------------7-4-4-----|-

Stave 2:

E|-------------------------|-------------------------------------|-
B|-------------------------|-------------------------------------|-
G|-------------------------|-------------------------------------|-
D|-6-----------5-----------|-6-5-5-----------6-5-4-5-------3-3-3-|-
A|-------------------------|-------------------------------------|-
E|---4-3-4-3-4---3-4-3-4-3-|-------0-0-0-0-0---------7-1-1-------|-

Stave 3:

E|-----------------------------------|----------------------------|-
B|-----------------------------------|----------------------------|-
G|-----------------------------------|-------------------------10-|-
D|------------------7---8---4-----10-|-10-9-9----10-9------9------|-
A|-6-5-5----6---5---5---6---2-3-3-8--|----------------9-10---8----|-
E|-4-3-3----4-0-3-0-5-0-6-0-2-1-1-8--|----------------------------|-

http://www.guitartabcreator.com
Guitar Tab Creator is intended to store guitar tab created through the tool. It currently does not support in-line text editing. Any text you place in here will be lost. If you need to comment on your tab, please use the "Tab Notes" section located below.