Sound will begin in 5 seconds

Nummer 13 deel 2

Chords
01234567891011121314151617181920212223
E
B
G
D
A
E
B
0 1 2 3 4 5 6 7 8 9 10 11 12 13 14 15 16 17 18 19 20 21 22 23
Song Science #1: How Pros Use 6 Chords to Write Hit Songs
(/) Slide Up  (\) Slide Down  (h) Hammer On  (p) Pull Off  (b) Bend (r) Release (v) Vibrato

Stave 1:

E|----------------------------------------------------------------------------|-----------|-
B|----------------------------------------------------------------------------|-----------|-
G|----------------------------------------------------------------------------|-----------|-
D|----------------------------------------------------------------------------|-----------|-
A|----------------------------------------------------------------------------|-2-3-2-6-5-|-
E|-16-0-15-0-15-0-15-15-0-15-0-13-0-13-0-13-0-11-11-12-12-0-12-12-12-12-12-12-|-0-1-0-4-3-|-

Stave 2:

E|-------------------------------------|-
B|----------------------8-8-8----7-7-7-|-
G|----------------------9-9-9----9-9-9-|-
D|-----------6----6-6-5-9-9-9----9-9-9-|-
A|-2-3-2-6-5-4----4-4-3-7-7-7----7-7-7-|-
E|-0-1-0-4-3-4----4-4-3-7-7-7----7-7-7-|-

Stave 3:

E|------------------------------------------------------------------------|-
B|------------------------------------------------------------------------|-
G|------------------------------------------------------------------------|-
D|------------------------------------------------------------------------|-
A|------------------------------------------------------------------------|-
E|-8-0-7-0-7-0-7-0-7-0-12-0-12-0-12-0-12-0-11-0-13-0-13-13-13-13-13-13-13-|-

http://www.guitartabcreator.com
Guitar Tab Creator is intended to store guitar tab created through the tool. It currently does not support in-line text editing. Any text you place in here will be lost. If you need to comment on your tab, please use the "Tab Notes" section located below.