Sound will begin in 5 seconds

Nummer 12 deel 2

Chords
01234567891011121314151617181920212223
E
B
G
D
A
E
B
0 1 2 3 4 5 6 7 8 9 10 11 12 13 14 15 16 17 18 19 20 21 22 23
Song Science #1: How Pros Use 6 Chords to Write Hit Songs
(/) Slide Up  (\) Slide Down  (h) Hammer On  (p) Pull Off  (b) Bend (r) Release (v) Vibrato

Stave 1:

E|--------------------------------------------------------------------------|-
B|--------------------------------------------------------------------------|-
G|--------------------------------------------------------------------------|-
D|-------8-8-8-8-8-8-8-8-8-8-8-8-7-7-7-10-8-8-------------8-8-8-5-5-5-7-7-7-|-
A|--------------------------------------------------------------------------|-
E|-6-6-6--------------------------------------6-6-6-6-6-6-6-6-6-3-3-3-5-5-5-|-

Stave 2:

E|-------------------|-----------------|---------------------------------|-------------------------|-
B|-------------------|-----------------|---------------------------------|-------------------------|-
G|-------------------|-----------------|---------------------------------|-------------------------|-
D|---------------7-7-|-------------8-8-|-7\8-8-8/7-7\12-12/11-11/8-8\7-7-|-12-12/11-11\15-15/14-14-|-
A|-0-0-0-0-0-0-0-----|-0-0-0-0-0-0-----|---------------------------------|-------------------------|-
E|-5-5-5-5-5-5-5-5-5-|-6-6-6-6-6-6-6-6-|---------------------------------|-------------------------|-

Stave 3:

E|-------------------------------------------------------------------------------------------|-
B|-------------------------------------------------------------------------------------------|-
G|-------------------------------------------------------------------------------------------|-
D|-------8-----8----8-------------7-8-8-8-11-11-12-12-11-11-8-8-------------8-8-------8----7-|-
A|--------------------------1-1-1------------------------------------------------------------|-
E|-0-0-0-6-0-0-6----6-0-0-0-0-0-0-5-6-6-6-9--9--10-10-9--9--6-6-0-0-0-0-0-0-6-6-0-0-0-6----5-|-

Stave 4:

E|-------------------------------------------------------------------|-
B|-------------------------------------------------------------------|-
G|-------------------------------------------------------------------|-
D|-7-7-7-7-7-7-7-6-6-6-6-6-6-6-6-6-6-3-3-3-3-3-3-6-6-6-6-6-6-6-6-6-6-|-
A|-5-5-5-5-5-5-5-4-4-4-4-4-4-4-4-4-4-1-1-1-1-1-1-4-4---4-4-4-4-4-4-4-|-
E|-5-5-5-5-5-5-5-4-4-4-4-4-4-4-4-4-4-1-1-1-1-1-1-4-4-4-4-4-4-4-4-4-4-|-

http://www.guitartabcreator.com
Guitar Tab Creator is intended to store guitar tab created through the tool. It currently does not support in-line text editing. Any text you place in here will be lost. If you need to comment on your tab, please use the "Tab Notes" section located below.