Sound will begin in 5 seconds

Englishman in New York - Sam Kim Solo (Abridged)

Chords
01234567891011121314151617181920212223
E
B
G
D
A
E
B
0 1 2 3 4 5 6 7 8 9 10 11 12 13 14 15 16 17 18 19 20 21 22 23
Song Science #1: How Pros Use 6 Chords to Write Hit Songs
(/) Slide Up  (\) Slide Down  (h) Hammer On  (p) Pull Off  (b) Bend (r) Release (v) Vibrato

Stave 1:

E|--7-------------------------------------------------------10--10--10--------------------------------------------------
B|--7-------------------------------------------10--10------10--10--10h12-----3----3----3-------------------------2--3--
G|--7-------7--9--9/11--9/11--11\9--7-----7/11----------11--------------------2h4--2h4--2----------------------3--------
D|--7--8/9---------------------------------------------------------------------------------4\2p0--2/4-----3/4-----------
A|--7----------------------------------0--------------------------------------------------------------------------------
E|--7----------------------------------------------------------------------3---------------------------2----------------

Stave 2:

E|-------------5--7--9------7-----5-----2-----
B|--2--3/5--3--5--7-----10-----7-----5--3-----
G|----------------7---------------------------
D|----------------7---------------------------
A|----------------7------------------------0--
E|----------------7---------------------------

http://www.guitartabcreator.com
Guitar Tab Creator is intended to store guitar tab created through the tool. It currently does not support in-line text editing. Any text you place in here will be lost. If you need to comment on your tab, please use the "Tab Notes" section located below.