Sound will begin in 5 seconds

Jingle Bell Rock Bas

01234567891011121314151617181920212223
E
B
G
D
A
E
B
0 1 2 3 4 5 6 7 8 9 10 11 12 13 14 15 16 17 18 19 20 21 22 23
Top Courses in Music 160x600
(/) Slide Up  (\) Slide Down  (h) Hammer On  (p) Pull Off  (b) Bend (r) Release (v) Vibrato

Stave 1:

G|--------------------------|--------------------------|--------------------------|--------------------------
D|--------------------------|--------------------------|--------------------------|--------------------------
A|-----2--5--2-----2--5--2--|--------------------5--5--|--------5--5--------5--5--|--------7--7--5--3--2-----
E|--3-----------3-----------|--3--3--4--4--5--5--------|--5--5--------5--5--------|--5--5-----------------5--

Stave 2:

G|--------------------------|--------------------------|--------------------------|--------------------------
D|--------------------------|--------------------------|--------------------------|--------------------------
A|-----2--5--2-----2--5--2--|--------------------5--5--|--------5--5--------5--5--|--------5--5-----------2--
E|--3-----------3-----------|--3--3--4--4--5--5--------|--5--5--------5--5--------|--5--5--------3--3--5-----

Stave 3:

G|--------------------------|--------------------------|--------------------------|--------------------------
D|--------5--5--------5--5--|--------------------------|--------------------------|--------------------------
A|--3--3--------4--4--------|--------2--5--------2--5--|--------7--7--------7--7--|--5-----------5--3--2-----
E|--------------------------|--3--3--------3--3--------|--5--5--------5--5--------|-----------------------5--

Stave 4:

G|--------------------------|--------------------------|--------------------------|-----------------
D|--------------------------|--------------------------|--------------------------|-----------------
A|-----2--5--2-----2--5--2--|-----------------------2--|--3--3--------3--3--------|--------5--5-----
E|--3-----------3-----------|--3--3--3--1--0--0--4-----|--------3--3--------3--3--|--5--5--------3--

http://www.guitartabcreator.com
Guitar Tab Creator is intended to store guitar tab created through the tool. It currently does not support in-line text editing. Any text you place in here will be lost. If you need to comment on your tab, please use the "Tab Notes" section located below.