Sound will begin in 5 seconds

Obra Max Guitarra

01234567891011121314151617181920212223
E
B
G
D
A
E
B
0 1 2 3 4 5 6 7 8 9 10 11 12 13 14 15 16 17 18 19 20 21 22 23
Song Science #1: How Pros Use 6 Chords to Write Hit Songs
(/) Slide Up  (\) Slide Down  (h) Hammer On  (p) Pull Off  (b) Bend (r) Release (v) Vibrato

Stave 1:

E|-------------------|-------------------|--------------------|-----------------|--
B|-------------------|-------------------|--10--9--12---------|-----------------|--
G|------9------8--8--|---------11--9-----|-------------11--9--|--9--8--6--------|--
D|---------11--------|-----11---------9--|--------------------|-----------9--6--|--
A|--11---------------|--9----------------|--------------------|-----------------|--
E|-------------------|-------------------|--------------------|-----------------|--

Stave 2:

E|-----------------|-----------------|-----------------|--9-------------9-----|--
B|--1--2--1--2--4--|-----------------|-----------------|-----12--10--9-----9--|--
G|-----------------|-----------------|-----------------|----------------------|--
D|-----------------|--2--4-----2--4--|-----2-----2--1--|----------------------|--
A|-----------------|--------4--------|--2-----2--------|----------------------|--
E|-----------------|-----------------|-----------------|----------------------|--

Stave 3:

E|--12--9----------------|----------------|---------9-----|--12--14--14--16--|--
B|---------9--10--9------|--9--12--10--9--|--9---------9--|------------------|--
G|-------------------11--|----------------|-----11--------|------------------|--
D|-----------------------|----------------|---------------|------------------|--
A|-----------------------|----------------|---------------|------------------|--
E|-----------------------|----------------|---------------|------------------|--

Stave 4:

E|--------------|-----------9--|--------------|-------------|-----------|-----------|-----------|--
B|----------10--|--------9-----|----------12--|-------------|-----------|-----------|-----------|--
G|------11------|-----8--------|------11------|---------11--|--------9--|--------6--|--------6--|--
D|--11----------|--9-----------|--12----------|------9------|-----7-----|-----7-----|-----6-----|--
A|--------------|--------------|--------------|--11---------|--9--------|--5--------|--4--------|--
E|--------------|--------------|--------------|-------------|-----------|-----------|-----------|--

http://www.guitartabcreator.com
Guitar Tab Creator is intended to store guitar tab created through the tool. It currently does not support in-line text editing. Any text you place in here will be lost. If you need to comment on your tab, please use the "Tab Notes" section located below.