Sound will begin in 5 seconds

These Days

01234567891011121314151617181920212223
E
B
G
D
A
E
B
0 1 2 3 4 5 6 7 8 9 10 11 12 13 14 15 16 17 18 19 20 21 22 23
Top Courses in Music 160x600
(/) Slide Up  (\) Slide Down  (h) Hammer On  (p) Pull Off  (b) Bend (r) Release (v) Vibrato

Capo Fret 1

Stave 1:

E|-----------
B|--------0--
G|-----1-----
D|--1--------
A|-----------
E|-----------

Stave 2:

E|-----------
B|--------0--
G|-----------
D|-----1-----
A|--2--------
E|-----------

Stave 3:

E|-----------2--
B|--------2-----
G|--------------
D|--------------
A|-----1--------
E|--2-----------

Stave 4:

E|-----------
B|-----------
G|--1--------
D|--------2--
A|-----2-----
E|-----------

Stave 5:

E|--------
B|--------
G|--0-----
D|--------
A|-----1--
E|--------

http://www.guitartabcreator.com
Guitar Tab Creator is intended to store guitar tab created through the tool. It currently does not support in-line text editing. Any text you place in here will be lost. If you need to comment on your tab, please use the "Tab Notes" section located below.