Sound will begin in 5 seconds

Stone Roses - This Is The One

Chords
01234567891011121314151617181920212223
E
B
G
D
A
E
B
0 1 2 3 4 5 6 7 8 9 10 11 12 13 14 15 16 17 18 19 20 21 22 23
Song Science #1: How Pros Use 6 Chords to Write Hit Songs
(/) Slide Up  (\) Slide Down  (h) Hammer On  (p) Pull Off  (b) Bend (r) Release (v) Vibrato

Stave 1:

A|---7-----7---7---7---7--------7-7-
E|-7---7-5---4---5---4---5-4----4-4-
A|------------------------------4-4-
G|----------------------------------

Stave 2:

A|-------------------------------7-6---------------------9-7-6-7-7-7-7-9-7-6-
E|---------------4-5-7-7-7-7-7-7-----7-5-5-5-5-7-7-7-7-7---------------------
A|-4-4-4-4-4-4-4-------------------------------------------------------------
G|---------------------------------------------------------------------------

Stave 3:

A|---7-----7-----7-----7-----------|-----------------------------------
E|-----5-4---5-4---5-4---5---4-----|-7-7---7-12-7-7-11-7-7-9-7-7-9-7-7-
A|-4-----------------------4---6-4-|-----6-----------------------------
G|---------------------------------|-----------------------------------

Stave 4:

A|---7---9-7-----7-11-9-7-------|-4-4-4-7----
E|-5---5-----5h7----------11h12-|-5-5-5-4----
A|------------------------------|-4-4-4-4----
G|------------------------------|-4-4-4-4----

http://www.guitartabcreator.com
Guitar Tab Creator is intended to store guitar tab created through the tool. It currently does not support in-line text editing. Any text you place in here will be lost. If you need to comment on your tab, please use the "Tab Notes" section located below.