Sound will begin in 5 seconds

Stone Roses - I Wanna Be Adored

01234567891011121314151617181920212223
E
B
G
D
A
E
B
0 1 2 3 4 5 6 7 8 9 10 11 12 13 14 15 16 17 18 19 20 21 22 23
Song Science #1: How Pros Use 6 Chords to Write Hit Songs
(/) Slide Up  (\) Slide Down  (h) Hammer On  (p) Pull Off  (b) Bend (r) Release (v) Vibrato

Stave 1:

A|---------5-5-5-5---------5h7p5-7-----7-----7/9-----7/9-7-5---------|-
E|-3-3-3-3---------3-3-3-3---------0-0---0-0-----0-0---------7-------|-
A|-------------------------------------------------------------------|-
G|-------------------------------------------------------------------|-

Stave 2:

A|-9-12-14-12-9-12-9-7----7-----------------|-
E|---------------------10---10-7-5-7-10-7-5-|-
A|------------------------------------------|-
G|------------------------------------------|-

Stave 3:

A|-14-----------------------------------------------------|-
E|----12-10----14---------10-14-----------10------10------|-
A|----------11----11-9-11----------9-9-11----9-11----11-9-|-
G|--------------------------------------------------------|-

Stave 4:

A|---7---5-7-5-7-9-7-5-7-5-7-5/7----14p12-14p12-14p12-------------------------|-
E|-7---7----------------------------------------------14p12-14p12-------------|-
A|----------------------------------------------------------------14-11-16-14-|-
G|----------------------------------------------------------------------------|-

http://www.guitartabcreator.com
Guitar Tab Creator is intended to store guitar tab created through the tool. It currently does not support in-line text editing. Any text you place in here will be lost. If you need to comment on your tab, please use the "Tab Notes" section located below.