Sound will begin in 5 seconds

Stone Roses - I Am The Resurection

Chords
01234567891011121314151617181920212223
E
B
G
D
A
E
B
0 1 2 3 4 5 6 7 8 9 10 11 12 13 14 15 16 17 18 19 20 21 22 23
Song Science #1: How Pros Use 6 Chords to Write Hit Songs
(/) Slide Up  (\) Slide Down  (h) Hammer On  (p) Pull Off  (b) Bend (r) Release (v) Vibrato

Stave 1:

A|------3------------
E|-------------------
A|-0---------5-4-2-0-
G|-------------------

Stave 2:

A|---------------3-3-x-3-3-x-3------------------3----
E|---------------0-0-x-0-0-x-0------------------0----
A|-5-5-4-5-4-5-7-0-0-x-0-0-x-0----5-5-4-5-4-5-7-0----
G|---------------0-0-x-0-0-x-0------------------0----

Stave 3:

A|------------------------8----8-8-8-----6----
E|-8----8----8-----6-8---------------6-8------
A|-------------5h7----------------------------
G|--------------------------------------------

Stave 4:

A|-10----8-8----6-6----6-6-6-6-8-6---|-10-8----8-10----15-13-10-8---|-
E|---------------------------------8-|------11--------------------8-|-
A|-----------------------------------|------------------------------|-
G|-----------------------------------|------------------------------|-

Stave 5:

A|-6----3-3------------------------------|-------------------------------------
E|-------------6-6----6----3-3-----3-----|-3-3-3-3-3-3----5-5-6-6-5-5-5-5-3----
A|-----------------------------3h5---3-0-|-3-3-3-3-3-3----5-5-6-6-5-5-5-5-3----
G|---------------------------------------|-----0-------------------------------

Stave 6:

A|-----6-----6-----6---------8---------6---------------3-
E|-----------------------6---8-------8---8-6---6---6---0-
A|-5h7---5h7---5h7---5h7---7-5---------------7---7---7-0-
G|-----------------------------------------------------0-

Stave 7:

A|-------------
E|---3---1-----
A|-0---0---2-0-
G|-------------

http://www.guitartabcreator.com
Guitar Tab Creator is intended to store guitar tab created through the tool. It currently does not support in-line text editing. Any text you place in here will be lost. If you need to comment on your tab, please use the "Tab Notes" section located below.