Sound will begin in 5 seconds

Led Zeppelin - Black Dog + Rock And Roll

Chords
01234567891011121314151617181920212223
E
B
G
D
A
E
B
0 1 2 3 4 5 6 7 8 9 10 11 12 13 14 15 16 17 18 19 20 21 22 23
Song Science #1: How Pros Use 6 Chords to Write Hit Songs
(/) Slide Up  (\) Slide Down  (h) Hammer On  (p) Pull Off  (b) Bend (r) Release (v) Vibrato

Stave 1:

A|------------------3--------7-5-3--------3-3-----
E|-5-5-5----5-3-5-5------5-5----------5-5-----5-3-
A|------------------------------------------------
G|------------------------------------------------

Stave 2:

A|-----------3------5-7-3-5-3--------3-------------------
E|---3-4-5-----5--------------5-5------5-3-5-5-----------
A|-4-------4-----------------------------------2-4-0-2---
G|-----------------------------------------------------2-

Stave 3:

A|-----------------------------------------
E|-5-x-5-x-5-x-5-x----5-x-5-x-5-5-5-5-5----
A|-4-x-6-x-7-x-6-x----4-x-6-x-4-7-7-7-7----
G|-----------------------------------------

Stave 4:

A|------------------------------------------
E|-5-x-7-x-8-x-7-x----5-x-7-x-5-8-8-8-------
A|-6-x-6-x-6-x-6-x----6-x-6-x-6-6-6-6-------
G|------------------------------------------

Stave 5:

A|-------------------------------------------
E|-7-x-9-x-7-x-10-x----7-x-9-x-7-10-10-10-10-
A|-8-x-8-x-8-x-8--x----8-x-8-x-8-8--8--8--8--
G|-------------------------------------------

http://www.guitartabcreator.com
Guitar Tab Creator is intended to store guitar tab created through the tool. It currently does not support in-line text editing. Any text you place in here will be lost. If you need to comment on your tab, please use the "Tab Notes" section located below.