Sound will begin in 5 seconds

Bon Iver - Team

Chords
01234567891011121314151617181920212223
E
B
G
D
A
E
B
0 1 2 3 4 5 6 7 8 9 10 11 12 13 14 15 16 17 18 19 20 21 22 23
Song Science #1: How Pros Use 6 Chords to Write Hit Songs
(/) Slide Up  (\) Slide Down  (h) Hammer On  (p) Pull Off  (b) Bend (r) Release (v) Vibrato

Stave 1:

A|-2-2-2-2-2-----------------------------
E|-2-2-2-2-2-5-2----2-7-5----5-10-7-5/10-
A|-2-2-2-2-2-----------------------------
G|-4-4-4-4-4-----------------------------

Stave 2:

A|-5-5-7-8/14----15-14---------------------------------
E|---------------------17-15----15-------15------------
A|---------------------------16----16-------16-14-11-7-
G|-----------------------------------------------------

Stave 3:

A|-3-2-0-3-|-------------------------------------------
E|-0-4-1-0-|------------------------------8-7-5-0-3----
A|-0-3-0-0-|-7----7/9-4----7/9-4-0-2-7-----------------
G|-0-0-2-0-|-------------------------------------------

http://www.guitartabcreator.com
Guitar Tab Creator is intended to store guitar tab created through the tool. It currently does not support in-line text editing. Any text you place in here will be lost. If you need to comment on your tab, please use the "Tab Notes" section located below.