Sound will begin in 5 seconds

Bon Iver - Blindsided

Chords
01234567891011121314151617181920212223
E
B
G
D
A
E
B
0 1 2 3 4 5 6 7 8 9 10 11 12 13 14 15 16 17 18 19 20 21 22 23
Song Science #1: How Pros Use 6 Chords to Write Hit Songs
(/) Slide Up  (\) Slide Down  (h) Hammer On  (p) Pull Off  (b) Bend (r) Release (v) Vibrato

Stave 1:

A|----3-------5-------|----5----3---------3------------5----3---------3------------5----3---------3--------------
E|--------------------|--------------6---------6-----------------6---------6-----------------6---------3/6-------
A|--------------------|------------------------------------------------------------------------------------------
G|--------------------|------------------------------------------------------------------------------------------

Stave 2:

A|----------------------------13----------------------------------------------------------------------|-------------------------------------------------------|-----------------
E|-------------------------------------10----10----13----10----10-------10----10----10----13----15----|----15----13----11----10-------------------------------|-----------------
A|----10----10----12----10----------------------------------------------------------------------------|----------------------------12----10-------10----10----|----0-------2----
G|----------------------------------------------------------------------------------------------------|-------------------------------------------------------|-----------------

Stave 3:

A|----1-------1-------1-------|----1----1----1----6----|----1-------
E|----1-------3-------1-------|----1----1----3----3----|----1-------
A|----2-------2-------2-------|----3----0----2----3----|----2-------
G|----3-------0-------3-------|----3----2----0----3----|----3-------

http://www.guitartabcreator.com
Guitar Tab Creator is intended to store guitar tab created through the tool. It currently does not support in-line text editing. Any text you place in here will be lost. If you need to comment on your tab, please use the "Tab Notes" section located below.