Sound will begin in 5 seconds

Artic Monkeys - When the sun goes down + Ritz

Chords
01234567891011121314151617181920212223
E
B
G
D
A
E
B
0 1 2 3 4 5 6 7 8 9 10 11 12 13 14 15 16 17 18 19 20 21 22 23
Song Science #1: How Pros Use 6 Chords to Write Hit Songs
(/) Slide Up  (\) Slide Down  (h) Hammer On  (p) Pull Off  (b) Bend (r) Release (v) Vibrato

Stave 1:

A|--2--4--6--2--6--2--4--x--9---7--6--4--6--
E|--2--3--4--2--4--2--4--x--9---7--6--4--6--
A|--3--3--4--3--4--3--4--x--10--8--6--4--6--
G|--4--3--4--3--4--3--6--x------------------

Stave 2:

A|--6--6--6--6--6--6--x--4--4--6--6--7--7--9--
E|--7--3--7--3--7--3--x--1--1--3--3--4--4--6--
A|--8--3--8--3--8--3--x--1--1--3--3--4--4--6--
G|--8--------------x--x--1--1--3--3--4--4--6--

Stave 3:

A|--------------------------5--5--7--9-----2-----1-----2-----
E|--------------------7--7-----------------3-----2-----2-----
A|--7--7--6--6--6--6-----------------------2-----1-----2-----
G|-----------------------------------------------------4-----

Stave 4:

A|-----------------------------------------------2-----
E|--------------------------------5--7--5--7-----2-----
A|--2--4--2--4-----4--6--4--6--------------------3-----
G|-----------------------------------------------4-----

http://www.guitartabcreator.com
Guitar Tab Creator is intended to store guitar tab created through the tool. It currently does not support in-line text editing. Any text you place in here will be lost. If you need to comment on your tab, please use the "Tab Notes" section located below.