Sound will begin in 5 seconds

Artic Monkeys - Riot Van

Chords
01234567891011121314151617181920212223
E
B
G
D
A
E
B
0 1 2 3 4 5 6 7 8 9 10 11 12 13 14 15 16 17 18 19 20 21 22 23
Song Science #1: How Pros Use 6 Chords to Write Hit Songs
(/) Slide Up  (\) Slide Down  (h) Hammer On  (p) Pull Off  (b) Bend (r) Release (v) Vibrato

Stave 1:

A|--4--4--2--------4--4--2-----
E|--5--4--2--------5--4--2-----
A|--6--4--2--------6--4--2-----
G|--6--6--4--------6--6--4-----

Stave 2:

A|--4--7--9------4--7--9------
E|--5--9--10-----5--9--10-----
A|--6--8--11-----6--8--11-----
G|----------------------------

http://www.guitartabcreator.com
Guitar Tab Creator is intended to store guitar tab created through the tool. It currently does not support in-line text editing. Any text you place in here will be lost. If you need to comment on your tab, please use the "Tab Notes" section located below.